Graveltrap - Srj Chords & Tabs

 

Srj Chords & Tabs

Graveltrap Chords & Tabs

Version: 2 Type: Bass Tab

Srj Bass Tab

Key:
/ = Slide down
\ = slide up
* = Let ring

Verse

|-----------------------------------------------------|
|-----------------------------------------------------|
|---------------------------------------5-5-5-5-5-5-5-|
|-5--5--5-5-5-5-0-0--0-0-0-0--2-2-2-2-2---------------|

Pre-Chorus

|-----------------------------------------|
|-----------------------------------------|
|-----------------------------------------|
|-5--5--5--5--5--5--5--7--7---7\5--0-0-2--|

|--------------------------------------------------|
|--------------------------------------------------|
|----------------------------10-10-10-10-10-10-10--|
|-5--5--5--5--5--5--5--7--7------------------------|

Chorus

|--------------------------------------------------------|
|--------------------------------------------------------|
|---------------------------------5-5-5-5-5--7-7-7-7-7-7-|
|-5*--5-5--2-2-2-2-2--0-0-0-0-0-0------------------------|

Main Riff

|---------------------------------------------------------|
|---------------------------------------------------------|
|---------------------------0-4-5---5-----5-0-4-5-0-------|
|-0-4-5---5---5-0-4-5---0*--------------------------6---4-|

Middle Eight

|----------------|
|----------------|
|----------------|
|-5-5---5-5---5--|

|-------------------------------|
|-------------------------------|
|-5-5-5-5-5-5-5-5---------------| x 2
|-----------------5-5-5-5-5-5-5-|

|---------------------------------------------------------------|
|-4h6p4---------------4h6p4-------------4h6p4-------------------|
|-------5-5-5-5-5-5-5--------------------------5-5-5-5-5-5-5----| 
|--------------------------5-5-5-5-5-5-5------------------------|


|-----------------------|
|-----------------------|
|---------3h5-5-5-------| x 8
|-3h5-5-5---------3h5-5-|

Bass Solo
[ Tab from: http://www.guitartabs.cc/tabs/g/graveltrap/srj_btab_ver_2.html ]
|--------------------------------------------------------------|
|-----------------------------------3----3---------------------|
|-----3-----3-5--/6---6---3-5-3--------------------------------|
|-5-------5----------------------1-----1---1---4-4-4-4-4-4-4-4-|

Post solo

|---------------|
|---------------|
|-/8--8---------|
|--------9\-5\--|

Breakdown

|---------------------|
|---------------------|
|-Rest-----------rest-|
|-----------6--4------|

Riff End

|------------------------------------------------|
|------------------------------------------------|
|---------------------------0-4-5---5------------|
|-0-4-5---5---5-0-4-5---0*--------------3-3-3-3--|

Final Chorus

|-----------------------------------------------------------------|
|-----------------------------------------------------------------|
|-----------------------------------------------------------------|
|-5---5---5-5-5-5---5-5---5-5-5-5-5---5---5-5-5-5---5-5---5-5-5-5-|

|-------------------------------------------------|
|-------------------------------------------------|
|--------------------------5-5-5-5-5--7-7-7-7-7-7-|
|---2-2-2-2-2--0-0-0-0-0-0------------------------|


Outro

|--------------------------------------|
|--------------------------------------|
|--------------------------------------|
|-5--5-5-5--4-4-4-4--2-2-2-2---0-0-0-0-|

|--------------------------------------------------------|
|--------------------------------------------7-7-9-9-5-5-|
|-2-2-2-2-2-2-2-2--5-5-5-5-5-5--7-7-7-7-7-7--------------|
|--------------------------------------------------------|


Final Note

|---|
|---|
|---|
|-5-|

Song Order

Verse x 2
Pre-chorus
Chorus x 2
Main riff x 2
Verse x 4
Pre-chorus
Chorus
Main Riff x 2
Middle Eight
Bass Solo x 10
Post solo x 4
Break Down
Main riff
Riff end
Chorus 
Final Chorus
Outro x 2
Final note