Grave Digger - The Brave Chords & Tabs

 

The Brave Chords & Tabs

Grave Digger Chords & Tabs

Version: 2 Type: Tab 0 ratings
1 star 2 stars 3 stars 4 stars 5 stars
comments

The Brave Tab

The Brave (Intro)
By Grave Digger


From album "Tunes Of War" (1996)
 
Transcribed by Teemu Haapanen
Email: thaapanen@pp.nic.fi



 Intro Riff (2x)
|-------------------------------------------------------------------------------|
|*-----------------------------------------------------------------------------*|
|-------------------------------------------------------------------------------|
|--3-(3)-3-(3)-------------5-(5)--------3-(3)-3-(3)-------------5-(5)-3-33-(3)--|
|*-1-(1)-1-(1)-6-(6)-5-(5)-3-(3)-3-(3)--1-(1)-1-(1)-6-(6)-5-(5)-3-(3)-1-11-(1)-*|
|--------------6-(6)-5-(5)-------1-(1)--------------6-(6)-5-(5)-----------------|


[ Tab from: http://www.guitartabs.cc/tabs/g/grave_digger/the_brave_tab_ver_2.html ]
 Riff 1                                                             (1st)           (2nd)
|------------------------------------------------------------------|---------------|---------|
|------------------------------------------------------------------|---------------|---------|
|------------------------------------------------------------------|---------------|---------|
|------------------------------------------------------------------|---------------|-3-33-(3)|
|-1111-1111-1111-1111-1111-1111-1111-1111-6666-6666-5555-5555-3333-|-----------3-3-|-1-11-(1)|
|------------------------------------------------------------------|-1111-1111-1-1-|---------|
  .... .... .... .... .... .... .... .... .... .... .... .... ....   .... ....



 Riff 2
|--------------------------------------------------------------------------------|
|--------------------------------------------------------------------------------|
|--------------------------------------------------------------------------------|
|--------------------------------------------------------------------------------|
|-1111-1111-1111-1111-1111-1111-1111-1111-6666-6666-5555-5555-3333-----------3-3-|
|------------------------------------------------------------------1111-1111-1-1-|
  .... .... .... .... .... .... .... .... .... .... .... .... .... .... ....



 Riff 3
|--------------------------------------------------------------------------|
|--------------------------------------------------------------------------|
|--------------------------------------------------------------------------|
|------------------------------------------8-(8)-7-(7)-5-(5)-3-33-(3)------|
|-1111-1111-1111-1111-1111-1111-1111-1111--6-(6)-5-(5)-3-(3)-1-11-(1)-dive-|
|--------------------------------------------------------------------------|
  .... .... .... .... .... .... .... ....




  . = palm mute
(5) = ghost note
Comments