Grave Digger - The Brave Chords & Tabs

 

The Brave Chords & Tabs

Grave Digger Chords & Tabs

Version: 1 Type: Tab 0 ratings
1 star 2 stars 3 stars 4 stars 5 stars
comments

The Brave Tab

					The Brave (Intro)
				        -----------------
					 by Grave Digger


  From album "Tunes of War" (1996)
 
  Transcribed by Teemu Haapanen
  Email: shadowmakers@hotmail.com


   Intro (2x)
  |--------------------------------------|-----------------------------------------|
  |*-------------------------------------|----------------------------------------*|
  |--------------------------------------|-----------------------------------------|
  |--3-(3)-3-(3)-------------5-(5)-------|-3-(3)-3-(3)-------------5-(5)-3-33-(3)--|
  |*-1-(1)-1-(1)-6-(6)-5-(5)-3-(3)-3-(3)-|-1-(1)-1-(1)-6-(6)-5-(5)-3-(3)-1-11-(1)-*|
  |--------------6-(6)-5-(5)-------1-(1)-|-------------6-(6)-5-(5)-----------------|

[ Tab from: http://www.guitartabs.cc/tabs/g/grave_digger/the_brave_tab.html ]
   Riff 1							       1st time       2nd time
  |------------------------------------------------------------------|---------------|---------|
  |------------------------------------------------------------------|---------------|---------|
  |------------------------------------------------------------------|---------------|---------|
  |------------------------------------------------------------------|---------------|-3-33-(3)|
  |-1111-1111-1111-1111-1111-1111-1111-1111-6666-6666-5555-5555-3333-|-----------3-3-|-1-11-(1)|
  |------------------------------------------------------------------|-1111-1111-1-1-|---------|
    p.m.........................................................................

  					
   Riff 2	 	                                               1st time        2nd time
  |------------------------------------------------------------------|---------------|---------------------------------|
  |------------------------------------------------------------------|---------------|---------------------------------|
  |------------------------------------------------------------------|---------------|---------------------------------|
  |------------------------------------------------------------------|---------------|-8-(8)-7-(7)-5-(5)-3-33-(3)------|
  |-1111-1111-1111-1111-1111-1111-1111-1111-6666-6666-5555-5555-3333-|-----------3-3-|-6-(6)-5-(5)-3-(3)-1-11-(1)-dive-|
  |------------------------------------------------------------------|-1111-1111-1-1-|---------------------------------|
    p.m.........................................................................

  
		
   p.m = palm mute
   (5) = ghost note
Comments