Grave Digger - Scotland United Chords & Tabs

 

Scotland United Chords & Tabs

Grave Digger Chords & Tabs

Version: 1 Type: Tab 0 ratings
1 star 2 stars 3 stars 4 stars 5 stars
comments

Scotland United Tab

Scotland United
By Grave Digger


From album "Tunes Of War" (1996)

Transcribed by Teemu Haapanen
Email: thaapanen@pp.nic.fi



 Intro Riff
|--------------------------------------------------------|
|--------------------------------------------------------|
|--------------------------------------------------------|
|-5-5-7----------5-5-7----------5-5-7----------5-5-3-(3)-|
|-3-3-5-55555555-3-3-5-55555555-3-3-5-55555555-3-3-1-(1)-|
|--------------------------------------------------------|
        ........       ........       ........



 Riff 1
|------------------------------------------------------------|
|------------------------------------------------------------|
|----------------------------------------------------/5--4-7-|
|-5-5-7----------5-5-7----------5-5-7----------5-5-5-/3--2-5-|
|-3-3-5-55555555-3-3-5-55555555-3-3-5-55555555-3-3-3---------|
|------------------------------------------------------------|
        ........       ........       ........


|--------------------------------------------------------|
|--------------------------------------------------------|
|--------------------------------------------------------|
|-5-5-7----------5-5-7----------5-5-7----------5-5-3-(3)-|
|-3-3-5-55555555-3-3-5-55555555-3-3-5-55555555-3-3-1-(1)-|
|--------------------------------------------------------|
        ........       ........       ........



 Verse Riff 1 (2x)
|--------------------------------------------------------------|
|*------------------------------------------------------------*|
|--5-5-2----------5-5-2----------5-5-2----------5-5-5----------|
|--5-5-2----------5-5-2----------5-5-2----------5-5-5-/5--4-7--|
|*-------00000000-------00000000-------00000000-------/3--2-5-*|
|--------------------------------------------------------------|
         ........       ........       ........


 Riff 1

 Verse Riff 1 (2x)


 Verse Riff 2
|-------------------------------------------------------|
|-------------------------------------------------------|
|-------------------------------------------------------|
|-------------------------------------------------------|
|-5-(5)-2-(2)-3-(3)-5-(5)-----5-(5)-2-(2)-3-(3)-5-55-55-|
|-5-(5)-0-(0)-1-(1)-3-(3)-3-1-5-(5)-0-(0)-1-(1)-3-33-33-|
                          . . 


 Chorus Riff
|----------------------------------------------------------------------------------|
|----------------------------------------------------------------------------------|
|----------------555-----------------------------------555-------------------------|
|-7----5----7----333-7----5----7----333-7----5----7----333-7----5------------------|
|-5-55-3-33-5-55-----5-55-3-33-5-55-111-5-55-3-33-5-55-----5-55-3-33-555555-333333-|
|----------------------------------------------------------------------------------|
    ..   ..   ..       ..   ..   .. ...   ..   ..   ..       ..   .. ...... ......


|------------------------------------------------------------------------------|
|------------------------------------------------------------------------------|
|----------------555-----------------------------------555---------------------|
|-7----5----7----333-7----5----7----333-7----5----7----333-7----5----7----5----|
|-5-55-3-33-5-55-----5-55-3-33-5-55-111-5-55-3-33-5-55-----5-55-3-33-5-55-3-33-|
|------------------------------------------------------------------------------|
    ..   ..   ..       ..   ..   .. ...   ..   ..   ..       ..   ..   ..   .. 



 Riff 2
|---------------------|
|---------------------|
|---------------------|
|-3-(3)-3-5-(5)-------|
|-1-(1)-1-3-(3)-slide-|
|---------------------|


[ Tab from: http://www.guitartabs.cc/tabs/g/grave_digger/scotland_united_tab.html ]
 Interlude
|-----------------------------------------------------------------------------|
|-----------------------------------------------------------------------------|
|-----------------------2--3-2------------------------------------------------|
|-------3-2~(2)-5-3~(3)--------5-3-5-3-2----------3-2~(2)-5-3-(3)-------------|
|-5~(5)----------------------------------3--5~(5)---------3-1-(1)-5-(5)-3-(3)-|
|-----------------------------------------------------------------3-(3)-1-(1)-|



 Solo
|------------------------------------------------------------------------------------------|
|---------------------------------------------------------------------------------8--------|
|-----------------------------------------10------12fb-12fbr-12p10--9-9--7-7~-------7-7----|
|--------------------------------------10----12~-------------------------------10-------7~-|
|-8~(8)-8-8h10~--8-10-8~(8)-8-10~--12------------------------------------------------------|
|------------------------------------------------------------------------------------------|


|-----------------------------------------------------------------------------------------|
|-13p10-9-10-13p10-9-10-13p10-9-10-13p10-9-10-13p10-9-10-13p10-9-10-13p10-9-10-13p10-9-10-|
|-----------------------------------------------------------------------------------------|
|-----------------------------------------------------------------------------------------|
|-----------------------------------------------------------------------------------------|
|-----------------------------------------------------------------------------------------|


|----------------------------------------------15fbr15~-------15-----------------------|
|-15~--15-15-15fbr------------------13fbr13~-------------17hb----17hbr-(17hbr)-15~(15)-|
|------------------14~--14-------------------------------------------------------------|
|---------------------------15-12~-----------------------------------------------------|
|--------------------------------------------------------------------------------------|
|--------------------------------------------------------------------------------------|


	       
 Solo Riff 1 (3x)               
|-----------------------------------------------------------------------|
|*---------------------------------------------------------------------*|
|-----------------------------------------------------------------------|
|-----------------------------------------------------------------------|
|*-5555555555555555-3333333333333333-1111111111111111-0000000000000000-*|
|-----------------------------------------------------------------------|
   ................ ................ ................ ................                            


 Solo Riff 2
|---------------------------------------------------------------------------------|
|---------------------------------------------------------------------------------|
|---------------------4----4----4----4----5----5----5----5----7----7----7----7----|
|-7----7----7----7----2-22-2-22-2-22-2-22-3-33-3-33-3-33-3-33-5-55-5-55-5-55-5-55-|
|-5-55-5-55-5-55-5-55-------------------------------------------------------------|
|---------------------------------------------------------------------------------|
    ..   ..   ..   ..   ..   ..   ..   ..   ..   ..   ..   ..   ..   ..   ..   ..


 Intro Riff
 
 Verse Riff 1 (2x)

 Verse Riff 2

 Chorus Riff (2x)


 Outro Riff
|-----------------------------------------------------------|
|-----------------------------------------------------------|
|-----------------------------------------------------------|
|-3-(3)-3-5-(5)-5-2-(2)-2-7-(7)-7-5-3-(3)-------------7-(7)-|
|-1-(1)-1-3-(3)-3-0-(0)-0-5-(5)-5-3-1-(1)-5-(5)-3--2--5-(5)-|
|-----------------------------------------3-(3)-1--0--5-(5)-|



  
 . = palm mute
 ~ = vibrato    
 / = slide up          
 p = pull off
 h = hammer on
 fb = full bend
 hb = half bend
fbr = full bend then release
hbr = half bend then release
(8) = ghost note
Comments