Grave Digger - Rebellion Chords & Tabs

 

Rebellion Chords & Tabs

Grave Digger Chords & Tabs

Version: 1 Type: Bass Tab 0 ratings
1 star 2 stars 3 stars 4 stars 5 stars
comments

Rebellion Bass Tab

REBELLION - GRAVE DIGGER

email:stivharris@hotmail.com


 Standard tuning 

   Intro part1
|---------------------------------|------------------------------|
|---------------------------------|------------------------------|
|---------------------------------|------------------------------|
|-2-2-2-2---------2-2-2-2---------|-2-2-2-2---------3--3---------|

   Intro part2
|-----------------|-----------------|-----------------|----------------|
|-----------------|-----------------|-----------------|----------------|
|-----------------|-----------------|-----------------|----------------|
|-0-0-0-0-0-0-0-0-|-0-0-0-0-0-0-0-0-|-0-0-0-0-0-0-0-0-|-0-0-0-0-2-0-3--|

|-----------------|-----------------|-----------------|----------------|
|-----------------|-----------------|-----------------|----------------|
|-----------------|-----------------|-----------------|----------------|
|-0-0-0-0-0-0-0-0-|-0-0-0-0-0-0-0-0-|-0-0-0-0-0-0-0-0-|-0-0-0-0-3-3----|


    riff1 x2
|-----------------|-----------------|-----------------|----------------|
|-----------------|-----------------|-----------------|----------------|
|-----------------|-----------------|-----------------|----------------|
|-0-0-0-0-0-0-0-0-|-0-0-0-0-0-0-0-0-|-0-0-0-0-0-0-0-0-|-0-0-0-0-2-0-3-2|
[ Tab from: http://www.guitartabs.cc/tabs/g/grave_digger/rebellion_btab.html ]
|-----------------|-----------------|-----------------|----------------|
|-----------------|-----------------|-----------------|----------------|
|-----------------|-----------------|-----------------|----------------|
|-0-0-0-0-0-0-0-0-|-0-0-0-0-0-0-0-0-|-0-0-0-0-0-0-0-0-|-0-0-0-0-2-0-2-3|

       riff2 x1
|-----------------|-----------------|-----------------|
|-----------------|-----------------|-----------------|
|-----------------|-----------------|-----------------|
|-0-0-3-0-5-0-3---|-0-0-3-0-5-6-5-3-|-0-0-3-0-5-0-3---|

   bridge
|----------------------------------|
|----------------------------------|
|----------------------------------|
|-2-2-2-2---------2-2-2-2----------|

    Chorus x4
|-----------------|-----------------|
|-----------------|-----------------|
|-----------------|-5-5-5-5-3-3-3-3-|
|-0-0-0-0-0-0-0-0-|-----------------|

just guitar then riff1 x1
riff2 x1
bridge
Chorus x4

  Fill1
|--------------------------------|
|--------------------------------|
|--------------------------------|
|-0---0--------------------------|

Chorus x8 during guitar solo
Intro x1

  Fill2 (during bagpipe solo) over and over many times
|-----------------|
|-----------------|
|-----------------|
|-0-2-3-0-5-3-2-0-|

bridge x1
Chorus x8

  ending
|-----------------|
|-----------------|
|-----------------|
|-2-2-2-2---------|
Comments