Grave Digger - Monks Of War Chords & Tabs

 

Monks Of War Chords & Tabs

Grave Digger Chords & Tabs

Version: 1 Type: Tab 0 ratings
1 star 2 stars 3 stars 4 stars 5 stars
comments

Monks Of War Tab

 
Monks Of War
By Grave Digger


From album "Knights Of The Cross" (1998)

Transcribed by Teemu Haapanen	
Email: thaapanen@pp.nic.fi



 Intro Riff
|---------------------------------------------------------|
|---------------------------------------------------------|
|-2-------4-----5-5-----9-----7-7-----7-----5-5-----5-----|
|-2-------4-----5-5-----7-----5-5-----5-----3-3-----3-----|
|---00000---000-----000---000-----000---000-----000---000-|
|---------------------------------------------------------|
    .....   ...     ...   ...     ...   ...     ...   ...


|------------------------------------------------------------|
|------------------------------------------------------------|
|-2-2-----4-----5-5-----5-----4-4-----4----------------------|
|-2-2-----4-----5-5-----5-----5-5-----5-----7----------------|
|-----000---000-----000---000-----000---000-5-55555555555555-|
|------------------------------------------------------------|
      ...   ...     ...   ...     ...   ...   ..............



 Riff 1
|---------------------------------------------------------|
|---------------------------------------------------------|
|-2-2-----4-----5-5-----9-----7-7-----7-----5-5-----5-----|
|-2-2-----4-----5-5-----7-----5-5-----5-----3-3-----3-----|
|-----000---000-----000---000-----000---000-----000---000-|
|---------------------------------------------------------|
      ...   ...     ...   ...     ...   ...     ...   ...


|-------------------------------------------------------------------------|
|-------------------------------------------------------------------------|
|-2-2-----4-----5-5-----5-----4-4-----4-----------------------------------|
|-2-2-----4-----5-5-----5-----5-5-----5-----7-7-----7\-------------2--1-1-|
|-----000---000-----000---000-----000---000-5-5-555-5\--3200-3-2-0--------|
|-------------------------------------------------------------------------|
      ...   ...     ...   ...     ...   ...     ...     .... . . .



 Verse Riff 1
|--------------------------------------------------------------|
|--------------------------------------------------------------|
|--------------------------------------------------------------|
|-9-9-------12--9-9-------14--12-12------------12--7-7-------7-|
|-7-7-77777-10--7-7-77777-12--10-10-1010101010-10--5-5-55555-5-|
|--------------------------------------------------------------|
      .....         .....            . . . . .         .....

                                                    (1st)(2nd)
|---------------------------------------------------|---|-----|
|---------------------------------------------------|---|-----|
|---------------------------------------------------|---|-----|
|-9-9-------12--9-9-------7--5-5-------5--2-2-------|---|-----|
|-7-7-77777-10--7-7-77777-5--3-3-33333-3--0-0-00000-|-5-|-5-5-|
|---------------------------------------------------|-3-|-3-3-|
      .....         .....        .....        .....



 Verse Riff 2
|------------------------------------------|
|------------------------------------------|
|-8--5--10--9---8--5--10-------------------|
|-7--7---9--7---7--7---9-------------------|
|-------------------------5555555555555555-|
|------------------------------------------|
                          ................



 Chorus Riff 1
|---------------------------------------------------------|
|---------------------------------------------------------|
|-2-2-----4-----5-5-----9-----7-7-----7-----5-5-----5-----|
|-2-2-----4-----5-5-----7-----5-5-----5-----3-3-----3-----|
|-----000---000-----000---000-----000---000-----000---000-|
|---------------------------------------------------------|
      ...   ...     ...   ...     ...   ...     ...   ...


|-------------------------------------------------------------------------|
|-------------------------------------------------------------------------|
|-2-2-----4-----5-5-----5-----4-4-----4-----------------------------------|
|-2-2-----4-----5-5-----5-----5-5-----5-----7-7-----7\-------------2--1-1-|
|-----000---000-----000---000-----000---000-5-5-555-5\--3200-3-2-0--------|
|-------------------------------------------------------------------------|
      ...   ...     ...   ...     ...   ...     ...     .... . . .



 Verse Riff 3
|--------------------------------------------------------------|
|--------------------------------------------------------------|
|--------------------------------------------------------------|
|-9-9-------12--9-9-------14--12-12------------12--7-7-------7-|
|-7-7-77777-10--7-7-77777-12--10-10-1010101010-10--5-5-55555-5-|
|--------------------------------------------------------------|
      .....         .....            . . . . .         .....

[ Tab from: http://www.guitartabs.cc/tabs/g/grave_digger/monks_of_war_tab.html ]
|-------------------------------------------------------|
|-------------------------------------------------------|
|-------------------------------------------------------|
|-9-9-------12--9-9-------7--5-5-------5--2-2-----------|
|-7-7-77777-10--7-7-77777-5--3-3-33333-3--0-0-00000-5-5-|
|---------------------------------------------------3-3-|
      .....         .....        .....        .....


 Verse Riff 2


 Chorus Riff 2
|---------------------------------------------------------|
|---------------------------------------------------------|
|-2-2-----4-----5-5-----9-----7-7-----7-----5-5-----5-----|
|-2-2-----4-----5-5-----7-----5-5-----5-----3-3-----3-----|
|-----000---000-----000---000-----000---000-----000---000-|
|---------------------------------------------------------|
      ...   ...     ...   ...     ...   ...     ...   ...


|------------------------------------------------------------------------|
|------------------------------------------------------------------------|
|-2-2-----4-----5-5-----5-----4-4-----4----------------------------------|
|-2-2-----4-----5-5-----5-----5-5-----5-----7-7------7-------------------|
|-----000---000-----000---000-----000---000-5-5-5555-5-------------------|
|-------------------------------------------------------0000000000000000-|
      ...   ...     ...   ...     ...   ...     ....    ................



 Solo
|-------------------------------------------------------------------------|
|-------------------------------------------------------------------------|
|------------------------------4-7-6~-4h6p4h6p4h6-2h4p2h4p2h4-1h2p1h2p1h2-|
|-------------------4-7-6~-6-7--------------------------------------------|
|----------2-5~-5-7-------------------------------------------------------|
|-2~-2-4-5----------------------------------------------------------------|


|---------------------------------------------------------------------------------------|
|---------------------------------------------------------------------------------------|
|-2-1-1/4-2----2-1-1/4------------------------------------------6h7p6-4h6p4-2h4p2-1h2p1-|
|-----------4~---------4~-3333333333333333-44444444-66666666-4~-------------------------|
|---------------------------------------------------------------------------------------|
|---------------------------------------------------------------------------------------|



 Solo Riff (2x)
|--------------------------------------------------------------------|
|*-------------------------------------------------------------------|
|--------------------------------------------------------------------|
|--------------------------------------------------------------------|
|*----------------------------------55555555555555555555555555555555-|
|--22222222222222222222222222222222----------------------------------|
   ................................ ................................


|----------------------------------------------------------------|
|---------------------------------------------------------------*|
|----------------------------------------------------------------|
|----------------------------------------------------------------|
|-44444444444444444444444444444444--------------------------6-6-*|
|----------------------------------555555555555555555555555-4-4--|
  ................................ ........................



 Riff 2
|---------------------------------------------------------------------------------------|
|---------------------------------------------------------------------------------------|
|---------------------------------------------------------------------------------------|
|---------------------------------------------------------------------------------------|
|---4---4---4---4---4---4---4---4-5-5----4---4---4---4---4---4---4---4------------------|
|-2-2-2-2-2-2-2-2-2-2-2-2-2-2-2-2-3-3--2-2-2-2-2-2-2-2-2-2-2-2-2-2-2-2-0000000000000000-|
  .   .   .   .   .   .   .   .        .   .   .   .   .   .   .   .   ................


 Verse Riff 1

 Verse Riff 2
 

 Chorus Riff 3
|---------------------------------------------------------|
|---------------------------------------------------------|
|-2-2-----4-----5-5-----9-----7-7-----7-----5-5-----5-----|
|-2-2-----4-----5-5-----7-----5-5-----5-----3-3-----3-----|
|-----000---000-----000---000-----000---000-----000---000-|
|---------------------------------------------------------|
      ...   ...     ...   ...     ...   ...     ...   ...

                                                     (1st)(2nd)
|----------------------------------------------------|---|-----|
|----------------------------------------------------|---|-----|
|-2-2-----4-----5-5-----5-----4-4-----4--------------|---|-----|
|-2-2-----4-----5-5-----5-----5-5-----5-----7-7------|-7-|-777-|
|-----000---000-----000---000-----000---000-5-5-5555-|-5-|-555-|
|----------------------------------------------------|---|-----|
      ...   ...     ...   ...     ...   ...     ....



 Outro Riff
|----------------------------|
|----------------------------|
|----------------------------|
|-------------7-------(7)-7\-|
|-7--5--3--2--5-slide-(5)-5\-|
|-5--3--1--0-----------------|




  . = palm mute
  / = slide up
  \ = slide down
  p = pull off
  h = hammer on
  ~ = vibrato
(5) = ghost note
Comments