Grave Digger - Heavy Metal Breakdown Chords & Tabs

 

Heavy Metal Breakdown Chords & Tabs

Grave Digger Chords & Tabs

Version: 1 Type: Bass Tab 0 ratings
1 star 2 stars 3 stars 4 stars 5 stars
comments

Heavy Metal Breakdown Bass Tab

   
HEAVY METAL BREAKEDOWN - GRAVE DIGGER

email:stivharris@hotmail.com

intro
G|---------|----------|-----------|-------------|
D|---------|----------|-----------|-------------|
A|-0-------|-00-------|-000-------|-------------|
E|---------|----------|-----------|-3---33-3-33-|
 
  riff1
G|---------------------------------|
D|---------------------------------|
A|-0-0-0-0-0-0-0-0-0-0-0-0-0-0-0-0-| x8
E|---------------------------------|

  riff2
G|---------------------------------|---------------------------------|
D|---------------------------------|---------------------------------|
A|---------------------------------|-----------------3-3-3-3-3-3-3-3-|x2
E|-3-3-3-3-3-3-3-3-2-2-2-2-2-2-2-2-|-1-1-1-1-1-1-1-1-----------------|

riff1 x4
[ Tab from: http://www.guitartabs.cc/tabs/g/grave_digger/heavy_metal_breakdown_btab.html ]
  riff3a
G|---------------------------------|---------------------------------|
D|---------------------------------|---------------------------------|
A|-5-5-5-5-5-5-5-5-5-5-5-5-5---3---|-1-1-1-1-1-1-1-------------------|
E|---------------------------------|---------------1-1-1-1-1-1-1-1-1-|

    riff3b
G|---------------------------------|---------------------------------|
D|---------------------------------|---------------------------------|
A|-5-5-5-5-5-5-5-5-5-5-5-5-5---3---|-1-1-1-1-1-1-1-------------------|   
E|---------------------------------|---------------3-3-3-3-3-3-3-3-3-|  
  A x1 B x1 A x1 B x1

riff1 x8
riff2 x2
riff1 x4
riff3 A x1 B x1 A x1 B x1
riff1 x4
riff3 A x1 B x1 A x1 B x1

    riff4            riff5
G|-----------------|---------------------|
D|-----------------|---------------------|
A|-1-1-1-1-1-1-1-1-|---------------------|
E|-----------------|-33-6-33-6-33-6-33-6-|

riff3 A x1 B x1 A x1 B x1
riff4
riff5
riff3 A x1 B x1 A x1 B x1
riff3 A x1 B x1 A x1 B x1
riff4
riff5


 ending
G|----------------|
D|----------------|
A|-5-5------------|
E|----------------|
Comments