Grave Digger - Culloden Muir Chords & Tabs

 

Culloden Muir Chords & Tabs

Grave Digger Chords & Tabs

Version: 1 Type: Tab 0 ratings
1 star 2 stars 3 stars 4 stars 5 stars
comments

Culloden Muir Tab

				
Culloden Muir
By Grave Digger


From album "Tunes Of War" (1996)

Transcribed by Teemu Haapanen
Email: thaapanen@pp.nic.fi

  

 Intro Riff
|--------------------------------------------------------|
|--------------------------------------------------------|
|--------------------------------------------------------|
|-7------8------7------5------7------8------7------5-5-5-|
|-5-5555-6-6666-5-5555-3-3333-5-5555-6-6666-5-5555-3-3-3-|
|--------------------------------------------------------|
    ....   ....   ....   ....   ....   ....   ....           


                                             (1st)        (2nd) 
|-------------------------------------------|------------|-----|
|-------------------------------------------|------------|-----|
|-------------------------------------------|------------|-----|
|-7------8------7------5------7------8------|-7------5-5-|--7--|
|-5-5555-6-6666-5-5555-3-3333-5-5555-6-6666-|-5-5555-3-3-|--5--|
|-------------------------------------------|------------|-----|
    ....   ....   ....   ....   ....   ....     ....             



 Riff 1 (3x)
|-----------------------------------------------------------------------------|
|*---------------------------------------------------------------------------*|
|-----------------------------------------------------------------------------|
|-----------------------------------------------------------------------------|
|*-----------4-------------------5-------------------4---------4-4-2---------*|
|--0h2-22222----222222-0h2-22222----222222-0h2-22222----222222-2-2-0-00000000-|
       .....    ......     .....    ......     .....    ......       ........



 Verse Riff 1
|----------------------------------------------------------------------------------------|
|----------------0-0----------------------------------------0-0--------------------------|
|--------------2------------------------------------------2------------------------------|
|-2--3-2-(2)-3--------2--3-2-(2)-------------2--3-2-(2)-3--------2--3-2-(2)--------------|
|-0--0-0-(0)----------0--0-0-(0)-5-5---3--3--0--0-0-(0)----------0--0-0-(0)-5-------3--3-|
|--------------------------------3-3-0-1--1---------------------------------3-33-31-1--1-|
                                     .                                        .. ..

     

 Verse Riff 2 (2x)                                 
|-----------------------|
|*---------------------*|
|-----------------------|
|------4--2-4-----5--5--|
|*-2-2-2--0-2-2-2-3--3-*|
|-----------------------|
   . .      . . .         				     
 
 
 
 Verse Riff 3                                
|-------------------------------------------|
|----------------0-0------------------------|
|--------------2----------------------------|
|-2--3-2-(2)-3--------2--3-2-(2)------------|
|-0--0-0-(0)----------0--0-0-(0)-5-5---3--3-|
|--------------------------------3-3-0-1--1-|
          		             .  


[ Tab from: http://www.guitartabs.cc/tabs/g/grave_digger/culloden_muir_tab.html ]
 Chorus Riff 1 (2x)
|-----------------------------------------------------------------------------------|
|*---------------------------------------------------------------------------------*|
|-----------------------------------------------------------------------------------|
|--7----8----7----5----7----8----7----5-5--7----8----7----5----7----8----7----5-5---|
|*-5-55-6-66-5-55-3-33-5-55-6-66-5-55-3-3--5-55-6-66-5-55-3-33-5-55-6-66-5-55-3-3--*|
|-----------------------------------------------------------------------------------|
     ..   ..   ..   ..   ..   ..   ..        ..   ..   ..   ..   ..   ..   ..   



 Riff 2
|--------------------------------------------------------------------------|
|--------------------------------------------------------------------------|
|--------------------------------------------------------------------------|
|--------------------------------------------------------------------------|
|-----------4-------------------5-------------------4---------4-4-2------2-|
|-0h2-22222----222222-0h2-22222----222222-0h2-22222----222222-2-2-0-0000-0-|     
      .....    ......     .....    ......     .....    ......       .... 


 Verse Riff 1

 Verse Riff 2 (2x)
  
 Verse Riff 3

 Chorus Riff 1 (2x)
  

 Then
|-------------|
|-------------|
|-------------|
|-------------|
|-4-(4)-slide-|
|-2-(2)-------|


 Drum Solo

 Verse Riff 1

 Verse Riff 2 (2x)

 Chorus Riff 1 (2x)


 Chorus Riff 2
|---------------------------------------------------------------------------------|
|---------------------------------------------------------------------------------|
|---------------------------------------------------------------------------------|
|-8----9----8----7----8----9----8----7-7--9---10----9----7----9---10----9----7-7--|
|-6-66-7-77-6-66-5-55-6-66-7-77-6-66-5-5--7-77-8-88-7-77-5-55-7-77-8-88-7-77-5-5--|
|---------------------------------------------------------------------------------|
    ..   ..   ..   ..   ..   ..   ..        ..   ..   ..   ..   ..   ..   ..



 Outro Riff
|------------------------------------------------------------------------------------------------|
|------------------------------------------------------------------------------------------------|
|------------------------------------------------------------------------------------------------|
|------------------------------------------------------------------------------------------------|
|-2------------------4-5--2------------------5-4--2------------------4-5--2------------------5-4-|
|-0-00-2p0-00-2p0-00-2-3--0-00-2p0-00-2p0-00-3-2--0-00-2p0-00-2p0-00-2-3--0-00-2p0-00-2p0-00-3-2-|
    ..     ..     ..        ..     ..     ..        ..     ..     ..        ..     ..     ..


|-------------------|
|-------------------|
|-------------------|
|-------------------|
|-----------------2-|
|-00-00-00-00-0-0-0-|
  .. .. .. .. . . 




  . = palm mute
  p = pull off
  h = hammer on
(2) = ghost note
Comments