Grave - Day Of Mourning Chords & Tabs

 

Day Of Mourning Chords & Tabs

Grave Chords & Tabs

Version: 1 Type: Tab 0 ratings
1 star 2 stars 3 stars 4 stars 5 stars
comments

Day Of Mourning Tab

   
#----------------------------------PLEASE NOTE---------------------------------#
#This file is the author's own work and represents their interpretation of the #
#song. You may only use this file for private study, scholarship, or research. #
#------------------------------------------------------------------------------##
from parrott@cachuma.callutheran.edu

Grave - "Day Of Mourning" (From the album "Into The Grave" and
a demo verson on the EP "...And Here I Die...Satisfied")

One of the best death metal bands out there! "...Grave" is heavy
as hell, "You'll Never See..." LP is great too, so is the EP.  

Drop guitars to C G C

Intro:

E ------------------------|
B ------------------------|
G ------------------------|4
C -11-1-0---0-11-1-0-1-3--|x
G -11-1-0-0---11-1-0-1-3--|
C -11-1-0-----11-1-0-1-3--|

E --------------|	    -------        -----
B --------------|	    -------	   -----
G --------------|8   (bass) ------- (bass) -----
C -----0--------|x	    -/x\-0-	   -/x\-
G ---0----------|	    -/x\-0-	   -/x\-
C -0-----0-1-3--|	    -/x\-0-	   -/x\-
[ Tab from: http://www.guitartabs.cc/tabs/g/grave/day_of_mourning_tab.html ]
E -------------|
B -------------|
G -------------|2
C -0--8--4--6--|x
G -0--8--4--6--|
C -0--8--4--6--|

Verse:

E -----------------------------------------
B -----------------------------------------
G -----------------------------------------
C --0000000000000-1-3-000000000000000-3-1--
G --0000000000000-1-3-000000000000000-3-1--
C --0000000000000-1-3-000000000000000-3-1--

Chorus:

E ----------------------
B ----------------------
G ----------------------
C --0000-7777-11111111--
G --0000-7777-11111111--
C --0000-7777-11111111--

After 2nd chorus:

E --------------------------|
B --------------------------|
G --------------------------|8
C --------------------0000--|x
G --------------------0000--|
C --0-1-3-4-3-1-0-1-3-0000--|

E -------------------------|
B -------------------------|
G -------------------------|4
C -------------------------|x
G ---------0----------1----|
C --0-00-0---0-1-11-1---1--|

E --------------------------|
B --------------------------|
G --------------------------|8
C --------------------0000--|x
G --------------------0000--|
C --0-1-3-4-3-1-0-1-3-0000--|

(repeat verse & chorus)

Comments