Grave - Brutally Deceased Chords & Tabs

 

Brutally Deceased Chords & Tabs

Grave Chords & Tabs

Version: 1 Type: Tab 0 ratings
1 star 2 stars 3 stars 4 stars 5 stars
comments

Brutally Deceased Tab

   
                           GRAVE - BRUTALLY DECEASED
                       From the Album: YOU'LL NEVER SEE...
                          Copyright: Century Media 1992

                      Version 1.0 - October 2001

Transcribed by: James Williams (Inverted)

For Questions, Comments, Newest Version, or Corrections contact
Inverted: at Inverted_one@hotmail.com

Check Out Death8699.com or Metaltabs.com for More Transcriptions:
 http://www.Death8699.com http://www.Metaltabs.com

 .  - palm mute           /  - slide up to
 \  - slide down to       ~  - vibrato
 h  - hammer on           b  - bend
 p  - pull off            Suffixes for bend ^
 ph - pinched harmonic     f - full bend    h - half bend
 *  - see comment          r - release      t - tap bend
 X  - Stuccatto            ~ - vibrato bend q - quarter bend
 ,  - slight palm mute    () - ghost note, sustained note

Tune Guitar to "B"E"A"D"F#"D"

BRUTALLY DECEASED!

Riff 1 - A
|----------------------------------------------------|
|----------------------------------------------------|
|----------------------------------------------------|
|----------------------------------------------------|
|--------444444------------222222--------------------|
|--222222------555555444444------444444555555444444--|


Riff 1 - B
|----------------------------------------------------|
|----------------------------------------------------|
|----------------------------------------------------|
|--------4-----------------2-------------------------|
|--2-----2-----5-----4-----0-----4-----5-----4-------|
|--0-----------3-----2-----------2-----3-----2-------|

Riff 2
|-----------------------------------------------|
|-----------------------------------------------|
|-----------------------------------------------|
|-------3------3-4------3-----------------------|
|-------1------1-2------1-----------------------|
|--0000---0000-----0000---00005555444422222222--|
spm,,,,   ,,,,     ,,,,   ,,,,,,,,,,,,,,,,,,,,
[ Tab from: http://www.guitartabs.cc/tabs/g/grave/brutally_deceased_tab.html ]
Riff 3
|------------------------------------------------------|
|------------------------------------------------------|
|------------------------------------------------------|
|------------------------------------------------------|
|--2---------------------------2--------------------2--|
|--0------2------3------2------0------2------3---------|

Lead 1
|----------------------------------------------------------|
|---------------------------------------------------bh-----|
|------------------------------------------------10-9^(9)--|
|----------10-9-----8----9-10----10-9-----8----9-----------|
|--15/7--7------10----10-------7------10----10-------------|
|----------------------------------------------------------|

Riff 4
|--------------------------------------------------------------------------|
|--------------------------------------------------------------------------|
|--------------------------------------------------------------------------|
|-----------------------------------------------------------------5-5-5-5--|
|--2-2-2-2--5-5-5-5--4-4-4-4--5-5-5-5--2-2-2-2--5-5-5-5--4-4-4-4--3-3-3-3--|
|--0-0-0-0--3-3-3-3--2-2-2-2--3-3-3-3--0-0-0-0--3-3-3-3--2-2-2-2-----------|
pm . . . .  . . . .  . . . .  . . . .  . . . .  . . . .  . . . .  . . . .

End Riff 4
||-------||
||-------||
||-------||
||---2---||
||---2---||
||---0---||

Riff 5
|-------------------|
|-------------------|
|-------------------|
|-----4--5----------|
|--2--2--3----5--4--|
|--0----------3--2--|

Lead 2
|------------------------------------------------------------12-11-12^(12)--|
|----------------------------------11-12-----------11--12-11--------bh------|
|--------------------------10-9--9~-------12-11--9~-------------------------|
|----9-10----------9--10-9--------------------------------------------------|
|--7~------10-9--7~---------------------------------------------------------|
|---------------------------------------------------------------------------|

SONG STRUCTURE:

Riff (1-A) x 10 Gtr I
Riff (1-A) x 2  (1-B) x 1 (1-A) x4 Gtr II
Riff ( 2 ) x 6
Riff (1-A) x 4
Riff ( 2 ) x 6
Riff ( 3 ) x 1 Lead ( 1 ) x 1 Gtr I
Riff ( 3 ) x 2 Gtr II
Riff ( 4 ) x 2
Riff ( 5 ) x 8 Lead ( 2 ) x 1 Gtr I
Riff ( 5 ) x 12 Gtr II
Riff (1-A) x 6 Gtr I
Riff (1-B) x 1 (1-A) x4 Gtr II
Riff ( 2 ) x 6
Riff ( 3 ) x 1 Lead ( 1 ) x 1 Gtr I
Riff ( 3 ) x 2 Gtr II
Riff ( 4 ) x 2

 Check out my other tabs by Grave, Hypocrisy and Obituary.
Comments