Grateful Dead - Truckin' Chords & Tabs

 

Truckin' Chords & Tabs

Grateful Dead Chords & Tabs

Version: 1 Type: Tab 0 ratings
1 star 2 stars 3 stars 4 stars 5 stars
comments

Truckin' Tab

   
                                 THE
                            GRATEFUL DEAD

Tabbed by:Robert Tyler....DrowningRedneck@aol.com
Song:Truckin'
Album:American Beauty,Skeletons from the Closet

I think this sounds better on Electric Guitar.This is how Bob Weir 
Plays Truckin'!!!Hope You like It.

Intro

e-----------------------------------------------------------------
B-----------------------------------------------------------------
G-----------------------------------------------------------------
D--0/2-0-2-0-2-0-2-0-2-2------------------------------------------
A------------------------2-0--------------------------------------
E----------------------------3-0----------------------------------
    
e--12b-11---------------------------------------------------------
B---------12/11--------------------------10b-10b-10b-10b 10/9-10/9
G---------------12-9-12b-12b-12/11--------------------------------
D----------------------------------12/11--------------------------
A-----------------------------------------------------------------
E-----------------------------------------------------------------

keep Truckin,like the doo dah man....
e--10-11-12-12b---------------------------------------------------
B-----------------------------------------------------------------
G-----------------------------------------------------------------
D-----------------------------------------------------------------
A-----------------------------------------------------------------
E-----------------------------------------------------------------

Verse 1

e-----------------------------------------------------------------
B-----------------------------------------------------------------
G-----------------------------------------------------------------
D----------2~-2---------------------------------------------------
A--0-2/3-0------3/2-0---------------------------------------------
E-----------------------------------------------------------------

Chorus(Palm mute all)2x....truckin like the doo dah man......

e----------------------------------------------------------------
b----------------------------------------------------------------
G----------------------------2-2-3-3-2-2-3-3-2-2-3-3-------------
D----2-2-3-3-2-2-3-3-2-2-3-3-2-2-3-3-2-2-3-3-2-2-3-3-------------
A----2-2-3-3-2-2-3-3-2-2-3-3-0-0-1-1-0-0-1-1-0-0-1-1-------------
E----0-0-1-1-0-0-1-1-0-0-1-1-------------------------------------


Verse 2 ?(notes play w/ vibrato)

Part After 2nd Chorus
[ Tab from: http://www.guitartabs.cc/tabs/g/grateful_dead/truckin_tab.html ]
e--12b-12b-12b-12b-12b-12/11-------11-12-12b----------------------
B----------------------------12/10-----------12/11-10/11-11-9-----
G-----------------------------------------------------------------
D-----------------------------------------------------------------
A-----------------------------------------------------------------
E-----------------------------------------------------------------

Chorus 2(somtimes the lights are shing on me.....
(STRUM CHORDS)
   A G
e--0-0------------------------------------------------------------
B--2-3------------------------------------------------------------
G--2-0------------------------------------------------------------
D--2-0------------------------------------------------------------
A--0-2--------------------------------------------------0---------
E--0-3--------------------------------------0-1-0-2-0-3-----------

LATELY IT OCCURS TO ME..............
   A G
e--0-0------------------------------------------------------------
B--2-3------------------------------------------------------------
G--2-0------------------------------------------------------------
D--2-0------------------------------------------------------------
A--0-2------------------------1P0---------------------------------
E--0-3----------------0-1-0-2-----1-------------------------------

After (What a long strange trip its been)
Note:If plucking the 12 doesnt sound right,bend 11 slightly and 
pluck a bent 11. 
       (hit this note many times)        
e--11b-12-12-12-12-12-12-12-12-12-11-12-11b-11b-11b-11b-11b-11/10
B----------------------------------------------------------------
G----------------------------------------------------------------
D----------------------------------------------------------------
A----------------------------------------------------------------
E----------------------------------------------------------------

e----------------------------------------------------------------
B---11/9-9------------------------------------------------------- 
G----------12?---------------------------------------------------

Verse

e----------------------------------------------------------------
B----------------------------------------------------------------
G----------------------------------------------------------------
D--------2-2-----------------------------------------------------
A--0-2-3-----3-2-0-----------------------------------------------
E----------------------------------------------------------------

little riff before last chorus

e----------------------------------------------------------------
B----------------------------------------------------------------
G----------------------------------------------------------------
D----------------------------------------------------------------
A------------0---------------------------------------------------
E--0-1-2-3-4-----------------------------------------------------

Ending

e--7-7-7-9-7-7-7-9-7-7-7-9-7-7-7-9-7-12b-9-12b-7-7-9-9-9-12b-----
B----------------------------------------------------------------

b=Bend
Comments