Grateful Dead - Terrapin Station Chords & Tabs

 

Terrapin Station Chords & Tabs

Grateful Dead Chords & Tabs

Version: 1 Type: Tab 0 ratings
1 star 2 stars 3 stars 4 stars 5 stars
comments

Terrapin Station Tab

Terrapin Staion by the Grateful Dead
Tabbed by James McRoberts(jcmcroberts@hotmail.com)

I'm not sure if this is the real tab but this is what i got.

This is only one part of the song, which is the part that i like
best and i couldnt figure out the other part

Thanks to Kim for helping me figure out this tab
[ Tab from: http://www.guitartabs.cc/tabs/g/grateful_dead/terrapin_station_tab.html ]
you have to find out the speed yourself and sorry if it sucks.
E-|-------------------------------------------------------------|
B-|-------------------------------------------------------------|
G-|-8/9-9-9--7-9-11-9---11-9-7--9-7-6--7-6-------------3/4-4-4--|
D-|-8/9-9-9--------------------------------7-7/9-9-9---3/4-4-4--|
A-|-6/7-7-7--------------------------------------------1/2-2-2--|
E-|-------------------------------------------------------------|


E-|-------------------------------------------------------------|
B-|-------------------------------------------------------------|
G-|-------------------------------------------------------------|
D-|------12-11---------6-9--7---------12-9---4-3-2--------------|
A-|-9-12-------12-9--7--------9-5---9--------4-3-2--------------|
E-|------------------------------------------2-1-0--------------|


thats all that i found out so far. if i find out more i'll update
it or if you have any questions email me at jcmcroberts@hotmail.com

Have fun with it!
Comments