Grateful Dead - Sugar Magnolias Chords & Tabs

 

Sugar Magnolias Chords & Tabs

Grateful Dead Chords & Tabs

Version: 1 Type: Tab 1 rating
1 star 2 stars 3 stars 4 stars 5 stars
comments

Sugar Magnolias Tab

#----------------------------------PLEASE NOTE---------------------------------#
#This file is the author's own work and represents their interpretation of the #
#song. You may only use this file for private study, scholarship, or research. #
#------------------------------------------------------------------------------##


Grateful Dead - Sugar Magnolia's 
Brought to you by Gtu's Own theprik 
Standard tuning
[ Tab from: http://www.guitartabs.cc/tabs/g/grateful_dead/sugar_magnolias_tab.html ]
 
|---------------------------------------------------------|
|-1/2-----1/2-----------3-2--1/2---1/2-------------2------|
|-1/2-----1/2-------2-4-4-2--1/2---1/2-------------2------|
|-1/2--0--1/2--2/4------2-2--1/2-0-1/2-2-4-2-------2------|
|--------------------------------------------3-2----------|
|---------------------------------------------------------|


           
  Chorus (just listen to the song)
|-----------------|
|-7-9-------------|
|-7-9------x-7----|
|-7-9------x-7----|
|-5-7-7h9--x-7----|
|-----------------|




Tablature Legend
----------------
 h   - hammer-on
 /   - slide up
 





***************************************************************************************
* Generated using Power Tab Editor by Brad Larsen - http://powertab.guitarnetwork.org *
***************************************************************************************
Comments