Grateful Dead - Sugar Magnolia Chords & Tabs

 

Sugar Magnolia Chords & Tabs

Grateful Dead Chords & Tabs

Version: 1 Type: Tab 0 ratings
1 star 2 stars 3 stars 4 stars 5 stars
comments

Sugar Magnolia Tab

--------------------------------------------------------------------------------
                         Grateful Dead - Sugar Magnolia
--------------------------------------------------------------------------------


[ Tab from: http://www.guitartabs.cc/tabs/g/grateful_dead/sugar_magnolia_tab.html ]
--------------------------------------------------------------------
--1/2--1/2---------------3----1/2--1/2--------------------------2---
--1/2--1/2-----------2--------1/2--1/2-----------2-----------1--2---
--1/2--1/2-------2------------1/2--1/2-------2-----------2------2---
-------------0---------------------------0-----------2--------------
--------------------------------------------------------------------


---------------------------------------------
--1/2--1/2-----------3---1/2--2--------2-----
--1/2--1/2--------2------1/2--2--1--1--2----- Repeat from top
--1/2--1/2-----2---------1/2--2--2--2--2-----
------------0--------------------2--2--------
---------------------------------------------
Comments