Grateful Dead - Shakedown Street Chords & Tabs

 

Grateful Dead Chords & Tabs

Version: 1 Type: Tab 0 ratings
1 star 2 stars 3 stars 4 stars 5 stars
comments

Shakedown Street Tab

   
Hey. This is Frank.  Yea, this is Shakedown Street.  Good song.  Good song.  I also
have Scarlet Begonias on here, so you can check that out too.  Good, good song.
Grateful Dead are great, man.  Good, good band.

This song had funk wah.
h-hammer on
p-pull off
/slide

Intro:  Dm
e---5----------5---|
B---6----------6---|
G---7----------7---|
D---7----------7---|
A---5----------5---|

e--------------5--------------------5---|
B--------------6--------------------6---|
G--------------7--------------------7---|
D--------------7--------------------7---|
A---8---7---5--5-----8--8---7-7--5--5---|
E---------------------------------------|
[ Tab from: http://www.guitartabs.cc/tabs/g/grateful_dead/shakedown_street_tab.html ]
e--------------5------------------------------------|
B--------------6------------------------------------|
G--------------7------------------------------0-2---|
D--------------7-------------------0-2-3----3-------|
A---8---7---5--5-----8--8---7-7---------------------|
E---------------------------------------------------|

Verse:
  Ya tell me this town ain't got no he-art.
e-----3---------------------------------1---0---|
B-----3---------------------------------1---1---|
G-----4-------strum---------------------2---0---|
D-----5------------------------------7/-3---2---|
A-----5---------------------------------3---3---|
E-----------------------------------------------|

  Well, well, well.     You can never tell.
e-------------------5-----------------------5---|
B-------------------6-----------------------6---|
G-------------------7-----------------------7---|
D-------------------7-----------------------7---|
A---8----7-----5----5----8--8----7-7---5----5---|
E-----------------------------------------------|
Comments