Grateful Dead - Saint Stephen Chords & Tabs

 

Saint Stephen Chords & Tabs

Grateful Dead Chords & Tabs

Version: 1 Type: Tab 0 ratings
1 star 2 stars 3 stars 4 stars 5 stars
comments

Saint Stephen Tab

   
#----------------------------------PLEASE NOTE---------------------------------#
#This file is the author's own work and represents their interpretation of the #
#song. You may only use this file for private study, scholarship, or research. #
#------------------------------------------------------------------------------#


Date: Fri, 26 Sep 1997 15:45:43 -0400
From: Alex Dzenis 
Subject: TAB: 'St. Stephen' by 'Gratefull Dead'


St. Stephen

By: Grateful Dead


[Intro]

[Main Theme]


^) Slide Up \) Slide Down h) Hammer On p) Pull Off b) Bend

Intro

BOB
E---7--7-----10--10-----------5---5-------------7---7---7---
B---7--7-----10--10-----------5---5-------------9---9---9---
G---8--8-----11--11-----------6---6-------------9---9---9---
D---9--9-----12--12-----------7---7-------------9---9---9---
A---9--9-----12--12-----------7---7-------------7---7---7---
E---7--7-----10--10-----------5---5-------------------------

JERRY
E----------------------------------------10--9--------------
B--12-12---------------9--10--12--10--9---------10--12--12--
G-----------------------------------------------------------
D-----------------------------------------------------------
A-----------------------------------------------------------
E-----------------------------------------------------------


E--5--5------------5--5--------------7---7---7--------------
B--7--7------------5--5--------------7---7---7--------------
G--7--7------------6--6--------------8---8---8--------------
D--7--7------------7--7--------------9---9---9--------------
A--5--5------------7--7--------------9---9---9--------------
E------------------5--5--------------7---7---7--------------


E-----------------------------10--9------11--11-------------
B-----------9--10--12--10--9---------10---------------------
G-----------------------------------------------------------
D-----------------------------------------------------------
A-----------------------------------------------------------
E-----------------------------------------------------------


E--5--5------------5---5-------------7---7---7--------------
B--5--5------------7---7-------------9---9---9--------------
G--6--6------------7---7-------------9---9---9--------------
D--7--7------------7---7-------------9---9---9--------------
A--7--7------------5---5-------------7---7---7--------------
E--5--5-----------------------------------------------------


E-----------9--10--12--10--9--10--9------12--12-------------
B------------------------------------12---------------------
G-----------------------------------------------------------
D-----------------------------------------------------------
A-----------------------------------------------------------
E-----------------------------------------------------------


E--5--5------------5---5--------7---7-----------------------
B--7--7------------5---5--------7---7-----------------------
G--7--7------------6---6--------8---8-----------------------
D--7--7------------7---7--------9---9-----------------------
A--5--5------------7---7--------9---9-----------------------
E------------------5---5--------7---7-----------------------


E-----------10--9--10--9------------------------------------
B-------------------------12--12--10--9---10--9-------------
G------------------------------------------------11---------
D-----------------------------------------------------------
A-----------------------------------------------------------
E-----------------------------------------------------------

Main Theme

Bob
E---0-------2-----------0-----------------------------------
B---0-------3-----------2-----------------------------------
G---1-------2-----------2-----------------------------------
D---2-------0-----------2-----------------------------------
A---2-------------------0-----------------------------------
E---0-------------------------------------------------------

Jerry
E-----------------------------------------------------------
B-----------------------------------------------------------
G---9--9--9^11/9--7--7--------7-------7--9^11/9--7---7------
D------------------------7h9-----7h9---------------9--------
A-----------------------------------------------------------
E-----------------------------------------------------------

[ Tab from: http://www.guitartabs.cc/tabs/g/grateful_dead/saint_stephen_tab.html ]
E---0--------2----------------0------------------------0----
B---0--------3----------------2------------------------0----
G---1--------2----------------2------------------------1----
D---2--------0----------------2------------------------2----
A---2-------------------------0------------------------2----
E---0--------------------------------------------------0----


E-----------------------------------------------------------
B-----------------------------------------------------------
G---9--9--9^11/9--7--9--7-----9--7--9--7--------------------
D-----------------------------------------9--7--9p7-----7---
A----------------------------------------------------10---10
E-----------------------------------------------------------

B Lick

     No Chord                                         |B
E----9p7--------9^7--------7--------------------------------
B----------9-------------------9---7------------7^9----7----
G--------------------------------------9--------------------
D-----------------------------------------------------------
A-----------------------------------------------------------
E-----------------------------------------------------------

Bridge

   E          D A              E
E---------------10------------------------------------------
B--9-10-12-12------12-10-12p10-9----------------------------
G-----------------------------------------------------------
D-----------------------------------------------------------
A-----------------------------------------------------------
E-----------------------------------------------------------

   D         A         E         D
E--------------------------------10-9-10--------------------
B--9-10-9---------9-10-12-10-12-----------------------------
G---------11-9-11-------------------------------------------
D-----------------------------------------------------------
A-----------------------------------------------------------
E-----------------------------------------------------------

   E          D A              E
E---------------10------------------------------------------
B--9-10-12-12------12-10-12p10-9----------------------------
G-----------------------------------------------------------
D-----------------------------------------------------------
A-----------------------------------------------------------
E-----------------------------------------------------------

   D         A         E  D
E-------------------------10-9-10---------------------------
B--9-10-9---------9-10-9------------------------------------
G---------11-9-11-------------------------------------------
D-----------------------------------------------------------
A-----------------------------------------------------------
E-----------------------------------------------------------

   E          D A              E
E---------------10------------------------------------------
B--9-10-12-12------12-10-12p10-9----------------------------
G-----------------------------------------------------------
D-----------------------------------------------------------
A-----------------------------------------------------------
E-----------------------------------------------------------

   D         A         E        D
E-------------------------------10-9-10---------------------
B--9-10-9---------9-10-12-10-12-----------------------------
G---------11-9-11-------------------------------------------
D-----------------------------------------------------------
A-----------------------------------------------------------
E-----------------------------------------------------------

   E          D A              E
E---------------10------------------------------------------
B--9-10-12-12------12-10-12p10-9----------------------------
G-----------------------------------------------------------
D-----------------------------------------------------------
A-----------------------------------------------------------
E-----------------------------------------------------------

   D         A          E      D
E-----------------------9----9-10-9-------------------------
B--9-10-9----10-9-12-10---12--------12-10-------------------
G---------11------------------------------------------------
D-----------------------------------------------------------
A-----------------------------------------------------------
E-----------------------------------------------------------
Comments