Grateful Dead - Ramble On Rose Chords & Tabs

 

Ramble On Rose Chords & Tabs

Grateful Dead Chords & Tabs

Version: 2 Type: Tab 0 ratings
1 star 2 stars 3 stars 4 stars 5 stars
comments

Ramble On Rose Tab

e---------------12b--12--10----10------12--12--12--14--14--12--10
b-----12----12--------------12----12~~---------------------------
g--14----14------------------------------------------------------
d----------------------------------------------------------------
a----------------------------------------------------------------
e----------------------------------------------------------------

e--14-14--14-14--10--17--17--16~-10/12--10-----------------------
b------------------------------------------12--14--12------------
g-----------------------------------------------------14---------
d----------------------------------------------------------------
a----------------------------------------------------------------
e----------------------------------------------------------------
[ Tab from: http://www.guitartabs.cc/tabs/g/grateful_dead/ramble_on_rose_tab_ver_2.html ]
Comments