Grateful Dead - Ramble On Rose Chords & Tabs

 

Ramble On Rose Chords & Tabs

Grateful Dead Chords & Tabs

Version: 1 Type: Tab 0 ratings
1 star 2 stars 3 stars 4 stars 5 stars
comments

Ramble On Rose Tab

#----------------------------------PLEASE NOTE---------------------------------#
#This file is the author's own work and represents their interpretation of the #
#song. You may only use this file for private study, scholarship, or research. #
#------------------------------------------------------------------------------##

Another one I saw that wasnt added on here, umm, i hope you guys dig 
this groovy song...

~The Dead is the Best for your Head~
~Gratefuldeadhead84~

Ramble On Rose
Grateful Dead
[ Tab from: http://www.guitartabs.cc/tabs/g/grateful_dead/ramble_on_rose_tab.html ]
E-------------------------2--2------------------------------
B-------------------------3--3------------------------------
G-------------------------2--2------------------------------
D---0-----0--------0--0---0--0------------------------------
A------2-----2--0-------------------------------------------
E-----------------------------------------------------------

E----------------0------------------------------------------
B----------------0------------------------------------------
G----------------1------------------------------------------
D---0-----0--1---2------------------------------------------
A------2---------2------------------------------------------
E----------------0------------------------------------------
                 Just like Mojo-Hand


Outro

E-----------------------------------------------2-----------
B-----------------------------------------------3-----------
G-----------------------------------------------2-----------
D---0-------------------------------------------0-----------
A------4---4---2---0--0-----0--0--0----0-----2--------------
E------------------------3----------------------------------
                                      Ramble on Rose



Comments