Grateful Dead - Money Honey Chords & Tabs

 

Money Honey Chords & Tabs

Grateful Dead Chords & Tabs

Version: 1 Type: Bass Tab 0 ratings
1 star 2 stars 3 stars 4 stars 5 stars
comments

Money Honey Bass Tab

The Grateful Dead.
"Money Honey". 

from:   llael@netzero.net

This is just the way I do it, so I doubt that its how the Dead do 
it.  It sounds GRATE with two guitars, though.
        
 Fig. # 1
  G------------------------------------------
  D------------------------------------------
  A---3h5-5-5-3h5-5-5-3h5-5-5-3h5-7-9-11-----
  E------------------------------------------

       G------------------------------------------
       D------------------------------------------
       A---3h5-5-5-3h5-5-5-3h5-5-5-3h5-3333335/12-
       E------------------------------------------
[ Tab from: http://www.guitartabs.cc/tabs/g/grateful_dead/money_honey_btab.html ]
 Fig. # 2
  G-------------------------------------------------
  D-----------------------------77----77----7-------
  A------55----55----5-------55----55----55---5-555-
  E---33----33----33---3-333------------------------

       G-------------------------------------------------
       D-------------------------------------------------
       A------77----77----55----55-55----5---------------
       E---55----55----33----33-------55---555555--------

 Then go back and repeat the whole tab, but on the third time 
    
   around, skip the -5-5- part on Fig. # 1.  I think four times 
   
   around total, is enough to sound pretty good.  Enjoy!

Comments