Grateful Dead - Misc Chords & Tabs

 

Misc Chords & Tabs

Grateful Dead Chords & Tabs

Version: 1 Type: Tab 0 ratings
1 star 2 stars 3 stars 4 stars 5 stars
comments

Misc Tab

   
---------------------------------PLEASE NOTE---------------------------------#
#This file is the author's own work and represents their interpretation of the #
#song. You may only use this file for private study, scholarship, or research. #
#------------------------------------------------------------------------------#
Black Muddy River
by the Grateful Dead


Intro and Main lick
Part 1       Part 2
e---------------------------------- ----------------------------------
b-----------1---1--2--1------------ ----------------------------------
g--------1----3---------3--1------- -2p1-----2-2-1-1-2p1------------------
d---1h3-----------------------3--1- ------4---------------4-----------
a---------------------------------- ----------------------------------
E---------------------------------- ----------------------------------

From: Paul Zimmerman 


Date: Sat, 14 Dec 1996 08:19:59 -0600
From: Dan Cotter 
Subject: TAB: Bird Song by Grateful Dead

Song Name: Bird Song
Artist Name: Grateful Dead
My Name: Dan Cotter (dcotter@uky.campus.mci.net)
Album: Reckoning
Words/Music: Hunter/Garcia

Main Riff in 'Bird Song' by The Grateful Dead
-------------------------------------------------------
-------------------------------------------------------
-------------------------15--12------------------------
-----12--13--15--12--------------13--15----------------
-15------------------13--------------------------------
-------------------------------------------------------


Box Of Rain
Grateful Dead
Music by Phil Lesh
Words by Robert Hunter
======================

[INTRO]
(A) (Bm7/A) (A) (Asus4)


[OUTRO]
(D) (C) (G) (D) (Asus4)



   A                (Bm7/A)           (Asus4)            (D)

  o       o         o o   o           o       o           o
| | | | | |       | | | | | |       | | | | | |       | | | | | |
| | * * * |       | | | * | *       | | * * | |       | | | * | *
| | | | | |       | | | | | |       | | | | * |       | | | | * |
| | | | | |       | | | | | |       | | | | | |       | | | | | |



   Am                 Em                 C                 G
  o       o       o     o o o             o   o         x o o o
| | | | * |       | | | | | |       | | | | * |       | | | | | |
| | * * | |       | * * | | |       | | * | | |       | | | | | |
| | | | | |       | | | | | |       | * | | | |       * | | | | *
| | | | | |       | | | | | |       | | | | | |       | | | | | |



   Bm
x
| | | | | |
| ---------  


#----------------------------------PLEASE NOTE---------------------------------#
#This file is the author's own work and represents their interpretation of the #
#song. You may only use this file for private study, scholarship, or research. #
#------------------------------------------------------------------------------##
Foolish Heart

I suppose it may be a little too early to be iconizing this song
by posting the chords 'n' lyrix, but here they are to "Foolish Heart". 
As usual, chords that I don't know the names to I've either hazarded a
guess or assigned Roman numerals to.  If there is a conflict between one
of the names chosen for the more abstruse chords in the song and the
diagrams rendered, by all means go with the diagrams.  And as always, if
there are any corrections or questions (especially if you know the names
to some of these weirdoes [sp?]) PLEASE let me know.  
Also, a big thank you to whoever posted Cats Under the Stars. 8*D
 

    7   5    7      6 5    8   6    9   7
-|-|-|-|-|--|-|-|-|-|--|-|-|-|-|--|-|-|-|-|--|-|-|-|-|-
-|-|-|-|-|--|-|-|-|-|--|-|-|-|-|--|-|-|-|-|--|-|o|-|-|-
-|-|o|-|-|--|-|o|-|-|--|-|-|o|-|--|-|o|-|-|--|-|x|-|-|-
-|-|-|o|-|--|-|o|-|-|--|-|-|o|-|--|-|-|o|-|--|-|o|-|-|-
-|-|-|-|o|--|-|o|-|-|--|-|-|-|o|--|-|-|-|o|--|-|-|-|o|-
-|-|-|-|-|--|-|-|-|-|--|-|-|-|-|--|-|-|-|-|--|-|-|-|-|-
     A      D(I)       Amaj 7     I    II

    9   7    9   7    9   7
-|-|-|-|-|--|-|-|-|-|-  -|-|-|-|-|-
-|-|o|-|-|--|-|-|-|-|--|-|-|-|-|-
-|-|o|-|-|--|-|o|-|-|--|-|o|-|-|-
-|-|-|o|-|--|-|o|-|-|--|-|-|o|-|-
-|-|-|-|o|--|-|-|-|o|--|-|-|-|o|-
-|-|-|-|-|--|-|-|-|-|--|-|-|-|-|-
    III    IV     V
[ Tab from: http://www.guitartabs.cc/tabs/g/grateful_dead/misc_tab.html ]
    5   3    4   2      2    4   2
-|-|-|-|o|--|-|-|-|o|--|-|-|-|-|--|-|x|-|-|-
-|-|-|o|-|--|-|o|-|-|--|-|-|o|-|--|-|-|-|-|-
-|-|o|-|-|--|-|x|-|-|--|-|-|-|-|--|-|o|-|-|-
-|-|-|-|o|--|-|o|-|-|--|-|-|o|-|--|-|o|-|-|-
-|-|o|-|-|--|-|-|-|o|--|-|-|-|-|--|-|-|o|-|-
-|-|-|-|o|--|-|-|-|o|--|-|-|-|-|--|-|-|-|o|-
   C#9(?) F#7aug3rd E7aug3rd    VI (some variant of Bmin)

Other than the chords in the above diagrams, all chords are regular bar
chords, except for Gmaj7 and D at "unto a foolish heart" and the E7 at
the instrumental part, which are regular open chords at the low end of
the neck.  Most of the action takes place above the fifth fret, one
notable exception being that the Bmin at "never give your love..." is
with the bar on the second fret, allowing easy passage into the VI
chord.  Go nuts.

CHINACAT

------------------------------------------------

From: gt6234b@prism.gatech.edu (Joshua Bardwell)

                             Foolish Heart
                             -------------

                         Words By Robert Hunter
                         Lyrics By Jerry Garcia


CHORDS:

    Low E  High E
  String: 6 5 4 3 2 1

       A: x 0 2 2 2 0
       D: x x 0 2 3 2
      Bm: x x 4 4 3 2
      Bm: x 2 4 4 3 2  (optional if you're good with barres) =)
     F#m: 2 4 4 2 2 2  (no options -- better be good with barres) ;)
   Bm7/A: x 0 0 2 0 2
   Gmaj7: 3 2 0 0 0 1
   Gmaj7: 3 x 0 0 0 1  (I've seen it this way too -- use your preference)
   Bsus4: x x 3 3 4 1
   Bsus4: x 1 3 3 4 1  (barred, fuller version)
       B: x x 4 4 4 2
       B: x 2 4 4 4 2  (awww... you know...)
 Bsus4/A: x 0 4 4 5 2
     B/A: x 0 4 4 4 2
     G#m: 4 6 6 4 4 4 
  C#m7-5: 0 4 x 0 0 0  
 F#7sus4: 2 4 4 4 2 2
     F#7: 2 4 2 3 2 2
   F#7-9: x 9 8 9 8 9
     D/E: x x 2 2 3 2

------------------------------------------------------------------------------
Joshua Bardwell                    | "May be going to hell in a bucket, baby 
Internet: gt6234b@prism.gatech.edu |  But at least I'm enjoying the ride!"
------------------------------------------------------------------------------


Date: Tue, 28 Oct 1997 11:25:53 -0500
From: Alex Dzenis 
Subject: Song 'Mexicali Blues' by The Grateful Dead

Mexicali Blues

Grateful Dead

Ace

(Weir/Barlow)


Thank you to Steve Comeau for the old poasting of Mexicali Blues.  This
version (compleat with lyrics) would not have been possible without it.

Intro: (Single note Bass):
A B C# D (Chord) D-C#-D  D-C#-D  D-C#-D-Dsus4-D-D(open E)-D
            D-C#-D-Dsus4-D-D(open E)-D-A
            A7-G#7-A7  A7-G#7-A7  A7-G#7-A7-A7sus4-A7-G#7-A7
            A7-G#7-A7-A7sus4-A7-G#7-A7-D

Intro:(this is how you fake a trumpet intro on guitar)

Transcription by Alex Dzenis

e|-------------2--1--2-----2--1--2-----2--1--2--3----2--0--2--|
B|-------------3--2--3-----3--2--3-----3--2--3--3----3--3--3--|
G|-------------2--1--2-----2--1--2-----2--1--2--2----2--2--2--|
D|-----------0-0--3--0---0-0--3--0---0-0--3--0--0----0--0--0--|
A|----------------------------------------------0-------------|
E|-5-7-9-10---------------------------------------------------|

e|---2--1--2--3----2--0--2--0----|---0--2--0-----0--2--0------|
B|---3--2--3--3----3--3--3--2----|---2--1--2-----2--1--2------|
G|---2--1--2--2----2--2--2--2----|---0--1--0-----0--1--0------|
D|-0-0--3--0--0----0--0--0--2----|-2-2--1--2---2-2--1--2------|
A|------------0-------------0----|---0-----0-----0-----0------|
E|--------------------------0----|---0-----0-----0-----0------|

e|---0--2--0--0----0--2--0------0--2--0--0----0--2--0---------|
B|---2--1--2--3----2--1--2------2--1--2--3----2--1--2---------|
G|---0--1--0--0----0--1--0------0--1--0--0----0--1--0---------|
D|-2-2--1--2--2----2--1--2----2-2--1--2--2----2--1--2--0------|
A|---0-----0--0----0-----0------0-----0--0----0-----0---------|
E|---0-----0--0----0-----0------0-----0--0----0-----0---------|
Comments