Grateful Dead - Friend Of The Devil Chords & Tabs

 

Friend Of The Devil Chords & Tabs

Grateful Dead Chords & Tabs

Version: 3 Type: Tab 1 rating
1 star 2 stars 3 stars 4 stars 5 stars
comments

Friend Of The Devil Tab

#----------------------------------PLEASE NOTE---------------------------------#
#This file is the author's own work and represents their interpretation of the #
#song. You may only use this file for private study, scholarship, or research. #
#------------------------------------------------------------------------------##

Grateful Dead
Friend of the Devil
Tabber: Luke Maas
 
I never used to like The Grateful Dead, but now that I play a 
little, I realize why Garcia had/has such diehard fans. I can't 
take total credit for this tab, I rented a movie from the library. 
This tab would have been impossible without it, I have altered it
slighty. It's 95% correct.  (P.S. this is the entire song on one
guitar, so it's a little diff, but still incredible, best way to 
impress your friends!!) 
    - Luke Maas

Standard tuning:

Intro: 
    
 
[-------------3------------3------------3---------------3----------------------]
[---------0--------------------------------------------------------------------]
[o--0------------------0-------------0------------0----------------------------]
[o----------------4-----------2--------------0---------------------------------]
[------------------------------------------------------------------------------]
[------------------------------------------------------------------------------]

[-------------3-------------3----------------3---------------3-----------------]
[------------------------------------------------------------------------------]
[--------0-------------0---------------0----------------0---------------------o]
[-----------------------------------------------------------------------------o]
[---3-------------2--------------0---------------------------------------------]
[-------------------------------------------------3----------------------------]


chorus:

     set out runnin  but I________
[---------2----------------------------2---------------------------------------]
[------------------3-----------------------------3-----------------------------]
[o--------2-----------2----------------2------------2--------------------------]
[o----0-------0-------------------0---------0----------------------------------]
[------------------------------------------------------------------------------]
[------------------------------------------------------------------------------]

   
[---------0------------------------------0-------------------------------------]
[-------------------1-----------------------------1----------------------------]
[---------2------------2-----------------2-----------2------------------------o]
[-----------------------------------------------------------------------------o]
[-----0--------0---------------------0--------0--------------------------------]
[------------------------------------------------------------------------------]


[---------2----------------------------2---------------------------------------]
[------------------3-----------------------------3-----------------------------]
[---------2-----------2----------------2------------2--------------------------]
[-----0-------0-------------------0---------0----------------------------------]
[------------------------------------------------------------------------------]
[------------------------------------------------------------------------------]


[-----3--------2-------------------0------------2------------------------------]
[---------------------------------------3----------------3---------------------] 
[----------2---------2----------------------2---------------2------------------] 
[-----0--------0-------------------0----------------0--------------------------] 
[------------------------------------------------------------------------------] 
[------------------------------------------------------------------------------]



Bridge:

    Got two  rea-     sons_________
[--------2----------------------------2----------------------------------------] 
[-------------------3----------------------------3-----------------------------] 
[o-------2-------------2--------------2---------------2------------------------] 
[o---0---------0------------------0---------0----------------------------------] 
[------------------------------------------------------------------------------] 
[------------------------------------------------------------------------------]

   
[--------2----------------------------2----------------------------------------] 
[-------------------3----------------------------3-----------------------------] 
[--------2-------------2--------------2---------------2------------------------] 
[---0---------0------------------0---------0-----------------------------------] 
[------------------------------------------------------------------------------] 
[------------------------------------------------------------------------------]

  
[ Tab from: http://www.guitartabs.cc/tabs/g/grateful_dead/friend_of_the_devil_tab_ver_3.html ]
[--------0----------------------------0----------------------------------------] 
[-------------------1----------------------------1-----------------------------] 
[--------2-------------2--------------2---------------2------------------------] 
[---0---------0-----------------0----------0-----------------------------------] 
[------------------------------------------------------------------------------] 
[------------------------------------------------------------------------------]

  

[--------0----------------------------0----------------------------------------] 
[-------------------1----------------------------1-----------------------------] 
[--------2-------------2--------------2---------------2------------------------] 
[---0---------0-----------------0----------0-----------------------------------] 
[------------------------------------------------------------------------------] 
[------------------------------------------------------------------------------]

   
[--------0----------------------------0----------------------------------------] 
[-------------------3----------------------------3-----------------------------] 
[--------2-------------2--------------2---------------2------------------------] 
[---0---------0-----------------0----------0-----------------------------------] 
[------------------------------------------------------------------------------] 
[------------------------------------------------------------------------------]

[--------0----------------------------0----------------------------------------] 
[-------------------3----------------------------3-----------------------------] 
[--------2-------------2--------------2---------------2------------------------] 
[---0---------0-----------------0----------0-----------------------------------] 
[------------------------------------------------------------------------------] 
[------------------------------------------------------------------------------]



Solo:


[---7-----------7-----------7-----------7--------------------------------------]
[------------------------------------------------------------------------------] 
[o--------0-----------0-----------0-----------0--------------------------------] 
[o--5-----------4--------------------------------------------------------------] 
[---------------------------7-----------5--------------------------------------] 
[------------------------------------------------------------------------------] 


[---5-----------3-----------0--------------------------------------------------]
[---------------------------------3h1------------------------------------------] 
[---------0-----------0-------------0-----------0-----------------------------o] 
[-----------------------------------------------------------------------------o] 
[---3-----------2-----------0--------------------------------------------------] 
[-----------------------------------------3------------------------------------]
 
[---------5--------------------5------------7----------------------------------]
[--------------------7-------------7-----------------7-------------------------] 
[o--------7--------------7-------------7--------7------------------------------] 
[o--0-----------0--------------------------------------------------------------] 
[------------------------------0------------0----------------------------------] 
[------------------------------------------------------------------------------]



[---------3--------3---------3---------0------------------0--------------------]
[--------------------------------1---------------1-----------------------------] 
[---------0------------0------------0----------------0------------------------o] 
[-----------------------------------------------------------------------------o] 
[---3----------3-------------3--------------3----------------------------------] 
[------------------------------------------------------------------------------]


[---3-----3--------3---------0-------------------3-----------------------------]
[------------------------------------1-----------------------------------------] 
[---------0------------0---------0-------------------0-------------------------] 
[------------------------------------------------------------------------------] 
[---3----------3-------------3--------------3----------------------------------] 
[------------------------------------------------------------------------------]


[---5-------------------5---------3--------------------3-----------------------]
[-------------7------------------------------5---------------------------------] 
[---------7-----------------7------------5------------------5------------------] 
[----0-------------0--------------0---------------0----------------------------] 
[------------------------------------------------------------------------------] 
[------------------------------------------------------------------------------]

[---2---------0---------------------2------------------------------------------]
[-------------------------3------------------3---------------------------------] 
[--------2---------2------------2----------------2-----------------------------] 
[---0---------0-----------0--------------0-------------------------------------] 
[------------------------------------------------------------------------------] 
[------------------------------------------------------------------------------]

Then repeat bridge. When you sing the “night” part, play an open D instead, and the songs over. 
[---2---]
[---3---]
[---2---]
[---0---]
[-------]
[-------]



This was my first posted tab, peace!!
Comments