Grateful Dead - Friend Of The Devil Chords & Tabs

 

Friend Of The Devil Chords & Tabs

Grateful Dead Chords & Tabs

Version: 2 Type: Tab 1 rating
1 star 2 stars 3 stars 4 stars 5 stars
comments

Friend Of The Devil Tab

   
#----------------------------------PLEASE NOTE---------------------------------#
#This file is the author's own work and represents their interpretation of the #
#song. You may only use this file for private study, scholarship, or research. #
#------------------------------------------------------------------------------##
Grateful Dead
Friend Of The Devil   
Tabber: Unknown                          100bpm

Here is one of the grate ones.  put as much dead on here as it can handle but do it right.
 

|-Gtr 1------|-------------------|-Gtr 2-comes|-in-----------------| |-----------------------|-------------------------|
|------------|-------------------|------------|--------------------| |--------1/3—3--31--0--|-------------------------|
|------------|-------------------|------------|--------------------| |-----0--2/4—4--42--0--|-------2p0---0---0-2---2-|   
|-5--4--2--0-|-------------------|------------|-------0--0h2---0---| |-0h2-------------------|-0h1h2-----2---2-----2---|
|------------|-3-----2--0--------|------------|-0h1h2--------2-----| |-----------------------|-------------------------|
|------------|----------------3--|------------|--------------------| |-----------------------|-------------------------|

 

|---------------------0--|---------------------| |--------------------|--0----------------|
|-----—--0h1h3------3----|--3--1-0--1-0--------| |-----—--0h1h3--3----|--1-3-0-1-0--------|
|-0--0-0--0--------0-----|--0-------2---2p0----| |-0--0-0--0------0-0-|--------2---2p0----|
|-5--4----2------0-------|--2-------2-------2--| |-5--4----2------0---|--------2-------2--|  
|------------------------|---------------------| |----------------2---|-------------------|
|------------------------|---------------------| |--------------------|-------------------|



 

CHORUS 1:

D Am


|-D-----------|     |-Am------------------------------|-D----|
|-----------3-|     |---------------------------------|------|
|-------------|     |---------------------2-4-5-4-2---|------|
|-0---2-3-4---|     |---------2-4-5-2-4-5-----------5-|-4----|
|---0---------|     |---2-3-5-------------------------|---5--|
|-------------|     |-5-------------------------------|------|
 

   D                                 Am                          D          
|-D-----------|                |------------------------|-------10-------------------------|
|-----------3-|                |------------------------|----------------------------------|
|-------------|                |-------5--------5-------|-10/11----------------------------|
|-0---2-3-4---|                |-----5----7p5-----7p5---|--------------------0---0---0-2-0-|
|---0---------|                |-6h7----------7-------7-|----------------0-2---0---4-------|
|-------------|                |------------------------|-night------1/2-------------------|


|-G----------------------|------------------|
|----------------------5-|------------------|
|-------7----4-5-7---7---|--7-5-4---4-------|
|-----5------------------|--------7---7-5---|
|-5h7--------------------|----------------7-|
|------------------------|--C-----Am--------|

 

|-G--------------------|-----------------|
|----------------------|-5---------------|
|-------7----4-5-7---5-|---7-4---4-------|
|-----5----------------|-------7---7-5---|
|-5h7------------------|---------------7-|
|----------------------|-C-----Am--------|

 

CHORUS 2

|-Am------------------------|
|---------------------------|
|---------------------------|
|-------7---------7-6h7p5---|
|-5-6-7-----5-6-7---------7-|
|---------------------------|

 
|-Just-------------------|-------10---------------14----14-|--------------|
|------------------------|---------------------------------|--------------|
|-------5--------5-------|-10h11------12-12-12/14----14----|------------7-|
|-----5----7p5-----7p5---|---------------------------------|-0--------7---|
|-6h7----------7-------7-|---------------------------------|---0—8h9-----|
|------------------------|-night---------------------------|--------------|
..

 
|-7---7h10-----|--8-----8----|
|-8---8--------|--8-----8h10-|
|-7---7--------|--9-----9----|
|-9---9--------|-10----10----|
|--------------|-------------|
|-Mandolin-sim-|-------------|
 


CHORUS – 3


|-Am------------------------|              |-Just-------------------|
|---------------------------|              |------------------------|
|---------------------------|              |-------5--------5-------|  
|-------7---------7-6h7p5---|              |-----5----7p5-----7p5---|
|-5-6-7-----5-6-7---------7-|              |-6h7----------7-------7-|
|---------------------------|              |------------------------|
  
 

Bridge Lead-in

|-------10--------14-17p14---------------------------------------------|
|-----------15-17----------17p15------------------------------------15-|
|-10h11--------------------------16-14-16--14--------------------14----|
|---------------------------------------------17-16-14-----14h16-------|
|-------------------------------------------------------17-------------|
|-night----------------------------------------------------------------|

 

BRIDGE 1 

D


|-Jerry-------|-8/10-10-10-10-|-8/10-10----10-12-10----10-|
|--------7-7--|-8/10-10-10-10-|-8/10-10-13-10-10----13-10-|
|--------7-7--|-------v--^--v-|-------v--^--v ------------|
|--------7-7--|---------------|---------------------------|
|-----5--^-v--|---------------|---------------------------|
|-//5-Got-----|-D-------------|---------------------------|

C/G

|----11/12—15-15---15-------|-15--15-------15-------------------|
|----12/13—13-13------15h17-|--------15h17----------8-----8-----|
|----------------------------|-------------------8h9---8h9---9--|
|----------------------------|----------------------------------|
|----------------------------|----------------------------------|
|----named-------------------|----------------------------------|

 

D

|-8/10-10-10-10-|-------|-trail-----|--Am--|
|-8/10-10-10-10-|-------|-----------|------|
|-------v--^--v-|-%-x2--|-----------|------|
|---------------|-%-----|-0---0-2-0-|------|
|---------------|-------|---4-------|---3--|
|---------------|-------|-----------|------|
 
[ Tab from: http://www.guitartabs.cc/tabs/g/grateful_dead/friend_of_the_devil_tab_ver_2.html ]
    Am                          C                D   riff 3 (D -> G
|-15-----------------|------------------|--Lick DP11-------------------| 
|-15h17--17-17p15----|-8----8-8-------7-|------------------7-7---6b7~--|
|-----------------17-|-7h9--9-9p7-----7-|----------7-------7-7---------|
|--------------------|------------10--7-|------7h9-7h9p7---------------|
|--C-----------------|------------------|--8h9-----------9-------------|
|-up-----------------|----------------D-|------------------------------|

AFTER A BRIDGE COMES A VERSE!

4. Got a wife in Chino, babe, and one in Cherokee ...........


|------------------------------------------------------------------------|
|-8-8-------------------------------------------8-----------------8------|
|-----9-7h9p7-------------------------------7-9---9-7---------7-9---9----|
|-------------10-9----7-9----7-9----10-9h10-----------10-9h10---------10-|
|------------------10-----10-----10--------------------------------------|
|-G----------------------------------C-----------------------------------|

 

e--------7-10p7-------------7-10p7----|
b-8-8-10--------10-8p7h8-10--------8--|

 

e|-17-15----15-------15----15-------------|----|
b|-------17----17-15----17----17-17-1513-|-15-|  

 

CHORUS 4

D


|-----------|-Am--------------7-8-10/12-10-----------|
|-----------|--------------10--------------13-12-10--|
|---------7-|------------9---------------------------|
|-----------|-----7-9-10-----------------------------|
|---7-8-9---|---7------------------------------------|
|-----------|-8----------------------------------D---|

D


|-12-------------------------------------------|
|----13----------------------------------------|
|-------14-13-1211-----------------------------|
|-------------------12-1110---------------12---|
|----------------------------12-11-109---------|
|-D-------------------------------------10-----|


  Am                          D         
|-Am---------------------------|-D---|-Lick DP11-------------------| 
|----------------------5-------|-----|-----------------7-7---6b7~--|
|-------5-4---------5-----7p5-|--7--|---------7-------7-7----------|
|-----5-----7p5----5-----------|--7--|-----7h9-7h9p7---------------|
|-6h7------------7-------------|-----|-8h9-----------9-------------|
|------------------------------|-----|-----------------------------|

 



 SOLO

|-/10---7------7--------|-------------------------|
|---------10-8---10-8---|-8-------5---------------|
|---------------------9-|---9p75---7p5---5-------|
|-----------------------|---------------7---7p5---|
|-----------------------|-----------------------7-|
|-G---------------------|-C-----------------------|

 

|----------------------------|---------------------------|
|--------8-------8---8-----8-|-----8------------8--------|
|------7---7---7---7---7-----|-9-9---9p7----7h9---9p7----|
|-/9-9-------9-----------9---|-----------10-----------10-|
|----------------------------|---------------------------|
|-G--------------------------|-C-------------------------|

 

|----5-----------7---|------------------------------|----5-----------7---|
|----5h7-87-5---5h7-|--5-5h8p5------5--------------|----5h7-87-5---5h7-|
|-7--7---------7-7---|--5-------7p5--5-7p5-----5----|-7--7---------7-7---|
|--------------------|---------------------5h7---7--|--------------------|
|--------------------|------------------------------|--------------------|
|-D------------------|-Am---------------------------|-D------------------|

 

|-5-------------------------|-D-----10---------------14----14-|--14----14--|
|-5--5-----------------5----|---------------------------------|------------|
|-5----7p5-----------5---5--|-10h11------12-12-12/14----14----|-----14-----|
|----------7p5---5h7--------|---------------------------------|------------|
|--------------7------------|---------------------------------|------------|
|-Am------------------------|-Solo Culmination----------------|------------|

 

BRIDGE 2

 

|-DP11-----------------------------|   |-DP11---------------------------------|
|--6/7-7--6/7-7--6/7-76/7-8-7-6/7--|   |--7/8-8-8p7p6p5-----------------------|
|----------------------------------|   |----------------5-5-----5-------------|  
|--6/7-7--6/7-7--6/7-76/7-7-7-6/7-=|   |--------------------5h7---5h7-7-----7-|
|----------------------------------|   |--------------------------------8h9---|
|----------------------------------|   |-First one’s--------------------------|

  

|-Emphasis change--------------------|  |--------------------------------|
|----6/7-7--6/7-7--6/7-76/7-8-7-6/7-=|  |-8-----8-------8-----8-------7--|
|------------------------------------|  |-7h9-9-9p7-----7h9-9-9p7-----7--|
|----6/7-7--6/7-7--6/7-76/7-7-7-6/7-=|  |-----------10------------10--7--|
|-5----------------------------------|  |--------------------------------|
|------------------------------------|  |--------------------------------|

 

|-10----10---------------------------------------10---|
|-10h12p10---10-------------------------------10------|
|-------------9h11p9-----------------------11---------|
|--------------------12-11h12--12-12-12-12------------|
|-----------------------------------------------------|
|-Bridge 2 end----------------------------------------|

  

VERSE 5  V4 REPEAT (Play basic groove from V1 or use DP11)


|-DP11--------------------|------------------------|
|----8---8---8------------|---5--------------------|
|----7---7h9p7------7-----|---5--------------------|
|----9----------8h9---9/7-|-5------------5---7p5---|
|-10----------------------|--------5h6h7---7-----7-|
|-------------------------|------------------------|

 

|-----------------------|----8------8--------8----8---|
|----8---8---8----------|----8------8h10p8---8h10-8---|
|----7---7h9p7------7---|----9-------------9--------9-|
|----9----------8h9---9/|-10-----10-------------------|
|-10--------------------|-----------------------------|
|-----------------------|-----------------------------|

 

CHORUS 5Alternate

|-Am---------------------------|-D---|  |-Chorus end--------------|
|----------------------5-------|--7--|  |-------3-----------------|
|-------5-4---------5-----7p5-|--7--=|  |-----------2-5-4-2h4p2---|
|-----5-----7p5----5-----------|--7--|  |-2h3h4-----------------4-|
|-6h7------------7-------------|-----|  |-------------------------|
|------------------------------|-----|  |-------------------------|
Comments