Grateful Dead - Friend Of The Devil 2nd Guitar Chords & Tabs

 

Friend Of The Devil 2nd Guitar Chords & Tabs

Grateful Dead Chords & Tabs

Version: 1 Type: Tab 0 ratings
1 star 2 stars 3 stars 4 stars 5 stars
comments

Friend Of The Devil 2nd Guitar Tab

                                  
this is the part that goes over the first guitar. it’s pretty cool. listen to the song to see how it fits in





E---------------------------------------------------------------------------------------------------------
B---------------------------------------------------------------------------------------------------------
G------------0--------------0---------------------------0-----------0----0----0------------0-0--
D-----------------7-h9--0-------------------9-9-9-p7-------------------7--------------7-----------
A---5^6^7------------------------5^6^7-----------------------5^6^7-----------7-----7------7-------
E----------------------------------------------------------------------------------------------------------
[ Tab from: http://www.guitartabs.cc/tabs/g/grateful_dead/friend_of_the_devil_2nd_guitar_tab.html ]
E----------------------------------------------------------------------------------------------------------
B----------------------------------------------------------------------------------------------------------
G---0-0-0-4-0—0-457---7h9—7s5—5-5---0-0-0-4-0—0-457---0-0-9-0—7—5----5-5-4-00----
D-----------------------------------------------------------------------------4-2-0----------------------
A------------------------------------------------------------------------------------3-2-0--------------
E-------------------------------------------------------------------------------------------3------------

                                 email me at mmetzger3@hotmail.com and tell me how awesome it is
                            it's the first one i've done
             
Comments