Grateful Dead - Fire On The Mountain Chords & Tabs

 

Fire On The Mountain Chords & Tabs

Grateful Dead Chords & Tabs

Version: 2 Type: Tab 0 ratings
1 star 2 stars 3 stars 4 stars 5 stars
comments

Fire On The Mountain Tab

heres the solo to fire on the mountain, im positive its 100% correct.

tuning-standard
effects-this solo sounds even cooler if you take a wah-pedal and put it alittle above 
i usually turn the gain to about 8...

e----11--12--11--12-s-14--(14)----12h14p12-----11h12p11------------|
b------------------------------------------------------------------|
g------------------------------------------------------------------|
d------------------------------------------------------------------|
a------------------------------------------------------------------|
E------------------------------------------------------------------|

e----14--14--13--14--13b14--12-----------12--14--------------------|
b--------------------------------14b16------------14b16r14--12--14-|
g------------------------------------------------------------------|
d------------------------------------------------------------------|
a------------------------------------------------------------------|
E------------------------------------------------------------------|
[ Tab from: http://www.guitartabs.cc/tabs/g/grateful_dead/fire_on_the_mountain_tab_ver_2.html ]
e-------------------------------------------------14-h-16-p14------|
b---------12-h-14-p-12-h-14-p-12--12----14-s-16~---------------16--|
g----13------------------------------------------------------------|
d------------------------------------------------------------------|
a------------------------------------------------------------------|
E------------------------------------------------------------------|

e------------------------------------------------------------------|
b----14b16r14p12----14b16r14~----12h14p12----14b16---14b16-(16)----|
g------------------------------------------------------------------|
d------------------------------------------------------------------|
a------------------------------------------------------------------|
E------------------------------------------------------------------|


e------------------------------------------------------------------|
b----14b16-14--14--12--14--12------12--12--------------------------|
g------------------------------13----------13----------------------|
d----------------------------------------------13s11-9-9-s\\\\\----|
a------------------------------------------------------------------|
E------------------------------------------------------------------|

thats about it enjoy its not that tricky. the simplistic genious of jerry...
Comments