Grateful Dead - China Cat Sunflower Chords & Tabs

 

China Cat Sunflower Chords & Tabs

Grateful Dead Chords & Tabs

Version: 4 Type: Tab 0 ratings
1 star 2 stars 3 stars 4 stars 5 stars
comments

China Cat Sunflower Tab

China cat sunflower, by The Grateful Dead

Band:Grateful Dead
Song:China Cat Sunflower
Album:Aoxomoxoa/Europe '72...ect
Written by:Garcia/Hunter

I'm not goin to tab the whole song because it would take me ages but the song more or 
circles around the same notes

e-------------------------------------------------------------|
B-------------------------------------------------------------|
G-------------------------------------------------------------|
D----5-----3---3--5--------5-------3--5------5------3---3--5--|
A------3h5---5----------------3h5--------------3h5----5-------|
E--3--------------------3------------------3------------------|
[ Tab from: http://www.guitartabs.cc/tabs/g/grateful_dead/china_cat_sunflower_tab_ver_4.html ]
-----------------------------------------------|
-----------------------------------------------|
-----------------------------------------------|
----5-------3--5-------------------------------|
-------3--5------------------------------------|
--3--------------------------------------------|

This riff(alternate the notes here n there) is played during most of the song and during 
is sung these lyrics:

Look for a while at the China Cat Sunflower
proud-walking jingle in the midnight sun
Copper-dome Bodhi drip a silver kimono
like a crazy-quilt stargown
through a dream night wind

Krazy Kat peeking through a lace bandana
like a one-eyed Cheshire
like a diamond-eye Jack
A leaf of all colors plays
a golden string fiddle
to a double-e waterfall over my back

Comic book colors on a violin river
crying Leonardo words
from out a silk trombone
I rang a silent bell
beneath a shower of pearls
in the eagle wing palace
of the Queen Chinee
Comments