Grateful Dead - China Cat Sunflower Chords & Tabs

 

China Cat Sunflower Chords & Tabs

Grateful Dead Chords & Tabs

Version: 2 Type: Tab 0 ratings
1 star 2 stars 3 stars 4 stars 5 stars
comments

China Cat Sunflower Tab

China Cat Sunflower by Grateful Dead


|-------------------------------------|
|----------7--8p7-----------7h8--10---|
|--------7---------9p7----------------|
|---7h9----------------7h9------------|
|-------------------------------------|
|-------------------------------------|                    
[ Tab from: http://www.guitartabs.cc/tabs/g/grateful_dead/china_cat_sunflower_tab_ver_2.html ]
|----------------------------------8-----10--12-14v|
|----------7--8p7----------------8-----10----------|
|--------7---------9p7---------9-----11------------|
|---7h9----------------7h9-------------------------|
|--------------------------------------------------|
|--------------------------------------------------|

|-------------------------------------|
|----------7--8p7-----------7h8--10---|
|--------7---------9p7----------------|
|---7h9----------------7h9------------|
|-------------------------------------|
|-------------------------------------|

|----------------------------------8-----10--12-10v|
|----------7--8p7----------------8-----10----------|
|--------7---------9p7---------9-----11------------|
|---7h9----------------7h9-------------------------|
|--------------------------------------------------|
|--------------------------------------------------|

tabbed by stratoblaster.......i think its right..

Comments