Grateful Dead - Casey Jones Chords & Tabs

 

Casey Jones Chords & Tabs

Grateful Dead Chords & Tabs

Version: 2 Type: Tab 0 ratings
1 star 2 stars 3 stars 4 stars 5 stars
comments

Casey Jones Tab

   
Tabbed by: Zach Fishoff
Email: Phishflaw

Tab by Me: Zach Fishoff


| /  slide up
| \  slide down
| h  hammer-on
| p  pull-off
| ~  vibrato
| +  harmonic
| x  Mute note

Tuning:eADGBE

Intro part
e|-8------8--------------------------------------------------------------------------|
B|-8h10---8-----8--------------------------------------------------------------------|
G|--------------7h9------------------------------------------------------------------|
D|-------------------10---7--------------10-10---------------------------------------|l
A|---------------------------8---10/12-----------------------------------------------|
E|-----------------------------------------------------------------------------------|

   Chorus
e|--------------------------------------------------------------------------------|
B|--5---5--5--5----------3------------3------------5------------------------------|
G|--5---5--5--5---2-2-2--3- -2--2--2--3----2--2----5------------------------------|l (2x)
D|--5---5--5--5---3-3-3- 3---3--3--3--3----3--3----5------------------------------|l
A|--3---3--3--3---3-3-3- 1---3--3--3--1----3--3----3------------------------------|
E|----------------1-1-1------1--1--1-------1--1-----------------------------------|l
[ Tab from: http://www.guitartabs.cc/tabs/g/grateful_dead/casey_jones_tab_ver_2.html ]
    Verse
e|--------------------------------------------------------------------------------|
B|-5--5--5--5--7--7--7--7---------------------------------------------------------|
G|-5--5--5--5--7--7--7--7---2--2--2--2---4--4--4--4-------------------------------|
D|-5--5--5--5--7--7--7--7---3--3--3--3---5--5--5--5-------------------------------|
A|-3--3--3--3--5--5--5--5---3--3--3--3---5--5--5--5-------------------------------|
E|--------------------------1--1--1--1---3--3--3--3-------------------------------|

e|---------------------------------0--0----0--0---------------------------------|
B|--5--5--5--5--7--7--7--7---------0--0----1--1---------------------------------|
G|--5--5--5--5--7--7--7--7--2--2---1--1----2--2---2--2--------------------------|
D|--5--5--5--5--7--7--7--7--3--3---0--0----2--2---5--5--------------------------|
A|--3--3--3--3--5--5--5--5--3--3---2--2----0--0---5--5--------------------------|
E|--------------------------1--1---0--0----0--0---3--3--------------------------|

       Then go to Chorus then intro verse and end with this

e|--0----5--0----------------------------------------------------------------------|
B|--8---7---6---5------------------------------------------------------------------|
G|--6---5---4---5------------------------------------------------------------------|
D|--0---7---0---5------------------------------------------------------------------|
A|--7---5---5---3------------------------------------------------------------------|
E|--5---x---3----------------------------------------------------------------------|
Comments