Grateful Dead - Casey Jones Chords & Tabs

 

Casey Jones Chords & Tabs

Grateful Dead Chords & Tabs

Version: 1 Type: Tab 0 ratings
1 star 2 stars 3 stars 4 stars 5 stars
comments

Casey Jones Tab

----------------------------------------------------------------------------
			     Casey Jones - Grateful Dead
----------------------------------------------------------------------------

Tabbed by: Blake
Email: schffba@netscape.net

Tuning: Standard (EADGBE)

Solo Coming Soon
[ Tab from: http://www.guitartabs.cc/tabs/g/grateful_dead/casey_jones_tab.html ]
Intro
e|----8h10-----8----------------------------------------------------------|
B|----8h10-----8----------------------------------------------------------|
G|----------------------9\7-----5-----------------------------------5~ ---|
D|-------------------------------------------------5-------7--------------|
A|----------------------------------------8-------------------------------|
E|------------------------------------------------------------------------|

Chours: 2x

       C one measure     F Two Measures           F(Half)  C (Half)
e|-----0-----------------1------------------------0--------1-----------------|
B|-----2-----------------1------------------------2--------1-----------------|
G|-----0-----------------2------------------------0--------2-----------------|
D|-----2-----------------3------------------------2--------3-----------------|
A|-----3-----------------3------------------------3--------3-----------------|
E|-----------------------1------------------------1--------------------------|

Stum Pattern: Down, Down, Up, Up, Down, Up
Comments