Grateful Dead - Alligator Chords & Tabs

 

Alligator Chords & Tabs

Grateful Dead Chords & Tabs

Version: 1 Type: Tab 0 ratings
1 star 2 stars 3 stars 4 stars 5 stars
comments

Alligator Tab

This is my first tab so bear with me. The part of the song I am tabbing here starts at
               "Oh no well I've been there before
               And I ain't gonna come around here no more"

right after the first verse. I'm not doing the whole song because the site 
has the rest of the song tabbed out correctly, except for this second verse. (By the way this site is 
excellent place to find Dead tabs)

This tab isn't exact, but it is something you can work with to get the way you want it.
                                               __
(intro)                                          |
(1st verse)                                      |
Sleepy Alligator in the noon day sun             |  see rukind.com
Lyin by the river just like he usually done      |
Call for his whiskey he can call for his tea     |
Call all he want to but he can't call me       __|

Oh no well I've been there before
|----------------------------------------------|
|----------------------------------------------|
|----------------------------------------------|
|----------------------------------------------|
|----------------------------------------------|
|-3----3p2h3p2h3p2h3p2h3----3p2h3---4p3h4------|


   And I ain't coming back around here no more
|----------------------------------------------|
|----------------------------------------------|
|----------------------------------------------|
|----------------------------------------------|
|----------------------------------------------|
|5--5p4h5p4h5p4h5p4h5---------7p6h7------------|

|-----------------------------------------------------|
|-----------------------------------------------13----|
|----------------------------------------10h12--------|
|----------------------------------10h12--------------|
|----------------------------10h12--------------------|
|-88888---5-8-5-8-10----10h12-------------------------|
[ Tab from: http://www.guitartabs.cc/tabs/g/grateful_dead/alligator_tab.html ]
|-----------8----------------8------------------------|
|-10---9h10----10--8----------------------------------|
|--------------------10-9-----------------------------|
|-----------------------------------------------------|
|-----------------------------------------------------|
|-----------------------------------------------------|

|-------------------------------------------------------------|
|------8-10-8-10-8--------------------------------------------|
|-9h10-------------10-----------------------------------------|
|-----------------------------------10----10h12p10----10------|
|----------------------8-------8/12----12----------12---------|
|-------------------------------------------------------------|
                                                     __
|------------------------------------------------      |
|------------------------------------------------      |
|------------------------------------------------      | repeat during 2nd
|-8-10-8-10-8--------------10----12h12p10----10--      |     verse
|-------------10-8----8/12----12----------12-----      |
|------------------------------------------------    __|

(2nd verse)
Creepy alligator coming all around the bend
Shoutin about the times when we was mutual friends
I checked my memry and I checked it quick
I checked it runnin some old kind of trick


  Oh no well I've been there before
|----------------------------------------------------|
|----------------------------------------------------|
|----------------------------------------------------|
|-12----------12\7-----------------------------------|
|----------------------------------------------------|
|----------------------------------------------------|

And I ain't coming back around here no more
|-----------------------------------------------|
|-----------------------------------------------|
|-----------------------------------------------|
|-7p6h7p6h7\-5-----5p4h5p4h5p4h5/7--------------|
|-----------------------------------------------|
|-----------------------------------------------|
Comments