Grasshopper Takeover - Esta Vida Chords & Tabs

 

Esta Vida Chords & Tabs

Grasshopper Takeover Chords & Tabs

Version: 1 Type: Tab 0 ratings
1 star 2 stars 3 stars 4 stars 5 stars
comments

Esta Vida Tab

xxxxxxxxxxxxxxxxxxxxxxxxxxxxxxxxxxxxxxxxxxxxxxxxxxxxxxxxxxx

Band: Grasshopper Takeover
Song: Esta Vida
Album: International Dance Marathon and Elephant Dreams
Written by Bob Boyce and Curt Grubb

Standard Tuning Down 1/2 Step (Eb-Ab-Db-Gb-Bb-Eb)


***Intro/Verse (Clean)***


Eb----0-0-----0-0-----0-0-------|----0-0-----0-0-----0-3--0--
Bb----1-1-----1-1-----1---1---1-|----1-1-----1-1-----1-------
Gb----0-0-----0-0-----0-----0---|----0-0-----0-0-----0-------
Db------------------------------|----------------------------
Ab-3-------2-------0------------|-3-------2-------0----------
Eb------------------------------|----------------------------


Eb----0-0-----0-0-----0-0-------|----------------------------
Bb----1-1-----1-1-----1---1---1-|---0------------------------
Gb----0-0-----0-0-----0-----0---|---0------------------------
Db------------------------------|---2------------------------
Ab-3-------2-------0------------|---2------------------------
Eb------------------------------|-0-------0h2h3--2--0--------


***Pre-Chorus (With Distortion)***
[ Tab from: http://www.guitartabs.cc/tabs/g/grasshopper_takeover/esta_vida_tab.html ]
Eb-------------|---------------------------
Bb-------------|---------------------------
Gb-------------|-5-5----7-7--7--7----------
Db-3-3----5-5--|-5-5----7-7--7--7----------
Ab-3-3----5-5--|-3-3----5-5--5--5----------
Eb-1-1----3-3--|---------------------------

...is a mystery...

Eb-------------|---------------------------
Bb-------------|---------------------------
Gb-------------|-5-5-5--5--5/7-7--7--7-----
Db-3-3----5-5--|-5-5-5--5--5/7-7--7--7-----
Ab-3-3----5-5--|-3-3-3--3--3/5-5--5--5-----
Eb-1-1----3-3--|---------------------------

...thing, I'd fall apart...

                       (first time only)
Eb--------------------|----------------------
Bb--------------------|----------------------
Gb--------------------|-5-5-5-5--5/7-7--7--7-
Db-3-3-3-3--3/5-5-5-5-|-5-5-5-5--5/7-7--7--7-
Ab-3-3-3-3--3/5-5-5-5-|-3-3-3-3--3/5-5--5--5-
Eb-1-1-1-1--1/3-3-3-3-|----------------------

...everything I do...         (2 times)



***Chorus (Clean)***


Eb--------------------------|
Bb-1-x-x-6-x--8--8--6-6-x-x-|
Gb-0-x-x-x-x--x--x--x-x-x-x-|
Db-2-x-x-7-x--9--9--7-7-x-x-|
Ab-3-x-x-8-x-10-10--8-8-x-x-|
Eb--------------------------|

  Esta vida...   (repeat...)


***Chorus End (Clean)***

Eb--0~---|--0~---|
Bb--3~---|--1~---|
Gb--0~---|--0~---|
Db--4~---|--3~---|
Ab--5~---|--3~---|
Eb-------|-------|

...life.


***Bridge (Clean)***

Same chords from Chorus End section w/ ad-lib picking




----------------------------
Transcribed by Matthew Juhl
mjuhl24@hotmail.com
www.grasshoppertakeover.com
Comments