Graphic Reality - Removal Chords & Tabs

 

Removal Chords & Tabs

Graphic Reality Chords & Tabs

Version: 2 Type: Bass Tab 0 ratings
1 star 2 stars 3 stars 4 stars 5 stars
comments

Removal Bass Tab

Artist: Graphic Reality
Album: Leper
Song: Removal
Tabbed by: Hunter McKee

Verse/Bridge
-----------------------------------------------------------
-----------------------------------------------------------
------------------------3----2----------------------------
---0--0h3---0--------------------------------------------

[ Tab from: http://www.guitartabs.cc/tabs/g/graphic_reality/removal_btab_ver_2.html ]
Verse
-----------------------------------------------------------
-----------------------------------------------------------
---------------4--------------------------------------------
-----------5-------5-----------------------------------------
You May want to just slide this up or down accordingly for the Verse, 
Depending on how high or low you think it should be played, but this is 
How I play it.


That's it. Questions, comments, send them to hunterjmckee@hotmail.com

Comments