Grandaddy - Summer Here Kids Chords & Tabs

 

Summer Here Kids Chords & Tabs

Grandaddy Chords & Tabs

Version: 1 Type: Tab 0 ratings
1 star 2 stars 3 stars 4 stars 5 stars
comments

Summer Here Kids Tab

Song: Summer Here Kids
Artist: Grandaddy
Album: The Crystal Lake
Tuning: Standard (EADGBe)

tabbed by BoF, feel free to send feedback and corrections at bof_mu@caramail.com

Gtr 1: Electric, Distorsion, bridge pick-up
Gtr 2: Acoustic

Intro
Gtr 1
e---------------------------
B---------------------------
G-6-6-6-6-6-----------------
D-6-6-6-6-6-4-4-4-4-4-------
A-4-4-4-4-4-4-4-4-4-4-------
E-----------2-2-2-2-2-------


Verse (bass only)
G---------------------------------------------------
D---------------------------------------------------
A---------------------------------------------------
E-1-1-1-1-1-1-2-2-2-2-2-2-0-0-0-0-0-0-2-2-2-2-2-2---

[ Tab from: http://www.guitartabs.cc/tabs/g/grandaddy/summer_here_kids_tab.html ]
Chorus
Gtr 1
e---------------------------
B---------------------------
G--9--8---------------------
D--9--8--4--7---------------
A--7--6--4--7---------------x2
E--------2--5---------------

Gtr 2
e----------5------------------
B--4---1---5------------------
G--6---0---6------------------
D--6---2---7------------------
A--4---3---7------------------
E----------5------------------

Back To Intro Riff x4

Verse

Chorus

then 
Gtr 2
e----------5------------------
B--4---1---5------------------
G--6---0---6------------------
D--6---2---7------------------
A--4---3---7------------------x3
E----------5------------------


e--------------5-------------
B--4---6---7---5-------------
G--6---8---9---6-------------
D--6---8---9---7-------------
A--4---6---7---7-------------
E--------------5-------------

finish on E
Comments