Grandaddy - Hewletts Daughter Chords & Tabs

 

Hewletts Daughter Chords & Tabs

Grandaddy Chords & Tabs

Version: 1 Type: Bass Tab 0 ratings
1 star 2 stars 3 stars 4 stars 5 stars
comments

Hewletts Daughter Bass Tab

Song:      Hewlett's Daughter
Artist:    Grandaddy
Album:     The Sophtware Slump
Tabbed by: Jason Mangan
Date:      5-3-2001

1st Verse:
G|----------------|----------------|----------------|----------------|
D|----------------|----------------|----------------|----------------|
A|----------------|----------------|----------------|----------------|
E|3-3---3-3-3---3-|3-3---3-3-3---3-|5-5---5-5-5---5-|5-5---5-5-5---5-|
  1 * 2 * 3 * 4 *  1 * 2 * 3 * 4 *  1 * 2 * 3 * 4 *  1 * 2 * 3 * 4 *

|----------------|----------------|----------------|----------------|
|----------------|----------------|----------------|----------------|
|----------------|5-5---5-5-5---5-|----------------|----------------|
|5-5---5-5-5---5-|----------------|3-3---3-3-3---3-|3-3---3-3-3---3-|
1 * 2 * 3 * 4 *  1 * 2 * 3 * 4 *  1 * 2 * 3 * 4 *  1 * 2 * 3 * 4 *

1st Interlude (same as 1st verse)

2nd Verse:
|----------------|----------------|----------------|----------------|
|----------------|----------------|----------------|----------------|
|----------------|----------------|----------------|----------------|
|3-3---3-3-3---3-|3-3---3-3-3---3-|5-5---5-5-5---5-|5-5---5-5-5---5-|
1 * 2 * 3 * 4 *  1 * 2 * 3 * 4 *  1 * 2 * 3 * 4 *  1 * 2 * 3 * 4 *

|----------------|----------------|--------------------|
|----------------|----------------|--------------------|
|----------------|----------------|--------------------|
|5-5---5-5-5-----|1---------------|--------------------|
1 * 2 * 3 * 4 *  1 * 2 * 3 * 4 *  1 * 2 * 3 * 4 * 5 *

|----------------|----------------|
|----------------|----------------|
|----------------|----------------|
|3-3---3-3-3---3-|3-3---3-3-3---3-|
1 * 2 * 3 * 4 *  1 * 2 * 3 * 4 *

Pre-chorus:
|----------------|----------------|----------------|----------------|
|----------------|----------------|----------------|----------------|
|----------------|5-5---5-5-5---5-|----------------|----------------|
|5-5---5-5-5---5-|----------------|3-3---3-3-3---3-|3-3---3-3-3---3-| (x2)
1 * 2 * 3 * 4 *  1 * 2 * 3 * 4 *  1 * 2 * 3 * 4 *  1 * 2 * 3 * 4 *
[ Tab from: http://www.guitartabs.cc/tabs/g/grandaddy/hewletts_daughter_btab.html ]
Chorus:
|----------------|----------------|----------------|----------------|
|----------------|----------------|----------------|----------------|
|----------------|2-2-2-2-2-2-2-2-|3-3-3-3-3-3-3-3-|3-3-3-3-3-3-3-3-|
|5-5-5-5-5-5-5-5-|----------------|----------------|----------------|
1 * 2 * 3 * 4 *  1 * 2 * 3 * 4 *  1 * 2 * 3 * 4 *  1 * 2 * 3 * 4 *

|----------------|----------------|----------------|----------------|
|----------------|----------------|----------------|----------------|
|----------------|----------------|3-3-3-3-3-3-3-3-|5-5-5-5-5-5-5-5-|
|5-5-5-5-5-5-5-5-|5-5-5-5-5-5-5-5-|----------------|----------------|
1 * 2 * 3 * 4 *  1 * 2 * 3 * 4 *  1 * 2 * 3 * 4 *  1 * 2 * 3 * 4 *

(1st time only)
|----------------|----------------|
|----------------|----------5-5---|
|----------------|----------------|
|3-3-3---3-3-3-3-|3-3-3-3-3-------|
1 * 2 * 3 * 4 *  1 * 2 * 3 * 4 *

2nd Interlude:
|----------------|----------------|----------------|----------------|
|----------------|----------------|----------------|----------------|
|----------------|----------------|----------------|----------------|
|3-3-3-3-3-3-3-3-|3-3-3-3-3-3-3-3-|5-5-5-5-5-5-5-5-|5-5-5-5-5-5-5-5-|
1 * 2 * 3 * 4 *  1 * 2 * 3 * 4 *  1 * 2 * 3 * 4 *  1 * 2 * 3 * 4 *

|----------------|----------------|----------------|----------------|
|----------------|----------------|----------------|----------------|
|----------------|5-5-5-5-5-5-5-5-|----------------|----------------|
|5-5-5-5-5-5-5-5-|----------------|3-3-3-3-3-3-3-3-|----------------| (x2)
1 * 2 * 3 * 4 *  1 * 2 * 3 * 4 *  1 * 2 * 3 * 4 *  1 * 2 * 3 * 4 *

Pre-chorus
Chorus

|----------------|----------------|----------------|----------------|----------------|
|----------------|----------------|----------------|----------------|----------------|
|----------------|----------------|3-3-3-3-3-3-3-3-|5-5-5-5-5-5-5-5-|----------------|
|0-0-0-0-0-0-0-0-|5-5-5-5-5-5-5-5-|----------------|----------------|3---------------|
1 * 2 * 3 * 4 *  1 * 2 * 3 * 4 *  1 * 2 * 3 * 4 *  1 * 2 * 3 * 4 *  1 * 2 * 
3 * 4 *

The End.

Comments