Grand Prize - I Wait For The Lord Chords & Tabs

 

I Wait For The Lord Chords & Tabs

Grand Prize Chords & Tabs

Version: 1 Type: Tab 0 ratings
1 star 2 stars 3 stars 4 stars 5 stars
comments

I Wait For The Lord Tab

I Wait for the Lord, by Scott Cunningham
Performed by Grand Prize


Main Hook:
E ------------------------|------------------------|------------------------|------------------------|
B ------------12----------|------------------------|------------8-----------|------7-----8-----7-----|
G 12----------------12----|11----------11h12-11----|9-----------------9-----|7-h9--------------------|
D ------14----------------|------12----------------|------10----------------|------------------------|
A ------------------------|------------------------|------------------------|------------------------|
E ------------------------|------------------------|------------------------|------------------------|

E ------------------------|------------------------|------------------------|------------------------|
B ------------12----------|------------------------|------------8-----------|8--8--8-----7--7--7-----|
G 12----------------12----|11----------11h12-11----|9-----------------9-----|7--7--7-----7--7--7-----|
D ------14----------------|------12----------------|------10----------------|7--7--7-----7--7--7-----|
A ------------------------|------------------------|------------------------|------------------------|
E ------------------------|------------------------|------------------------|------------------------|


Chorus:
E ------------------------|------------------------|------------------------|------------------------|
B ------------------------|------------------------|------------------------|------------------------|
G ------------------------|------------------------|------------------------|------------------------|
D 5-----5-----5-----5-----|5-----5-----5-----5-----|4-----4-----4-----4-----|5-----5-----5-----5-----|
A 3-----3-----3-----3-----|5-----5-----5-----5-----|5-----5-----5-----5-----|7-----7-----7-----7-----|
E ------------------------|3-----3-----3-----3-----|------------------------|------------------------|

E ------------------------|------------------------|------------------------|------------------------|
B ------------------------|------------------------|------------------------|------------------------|
G ------------------------|------------------------|------------------------|------------------------|
D 5-----5-----5-----5-----|5-----5-----5-----5-----|4-----4-----4-----7--7--|7--5--7-----7-b8-b7-----|
A 3-----3-----3-----3-----|5-----5-----5-----5-----|5-----5-----5-----5--5--|5--5--5-----5-----------|
E ------------------------|3-----3-----3-----3-----|------------------------|------------------------|

E ------------------------|------------------------|------------------------|------------------------|
B ------------------------|------------------------|------------------------|------------------------|
G ------------------------|------------------------|------------------------|------------------------|
D 5-----5-----5-----5-----|5-----5-----5-----5-----|4-----4-----4-----4-----|5-----5-----5-----5-----|
A 3-----3-----3-----3-----|5-----5-----5-----5-----|5-----5-----5-----5-----|7-----7-----7-----7-----|
E ------------------------|3-----3-----3-----3-----|------------------------|------------------------|

E ------------------------|------------------------|
B ------------------------|------------------------|
G ------------------------|------------------------|
D 7-----7-----7-----7-----|7-----------------------|
A 7-----7-----7-----7-----|5-----------------------|
E 5-----5-----5-----5-----|------------------------|


Guitar Solo:
E ------------------------|------------------------|------------------------|------------------------|
B ------------------8-h10-|10b12-10-8--------------|8-----------------------|------------------8-h10-|
G ------------7-h9--------|------------9--7--9-----|------9-----------7-----|7-----------7-h9--------|
D ------7-h9--------------|------------------------|------------7-h9--------|------7-h9--------------|
A 7-h10-------------------|------------------------|------------------------|------------------------|
E ------------------------|------------------------|------------------------|------------------------|
[ Tab from: http://www.guitartabs.cc/tabs/g/grand_prize/i_wait_for_the_lord_tab.html ]
E ------------------------|------------------------|------------------------|------10-----10h12-10---|
B 10b12----10b12b10-8-----|------8-----10----8-----|7-----7-----7-h8--7-----|10h12-------------------|
G ---------------------9--|7-h9--------------------|------------------------|------------------------|
D ------------------------|------------------------|------------------------|------------------------|
A ------------------------|------------------------|------------------------|------------------------|
E ------------------------|------------------------|------------------------|------------------------|

E 12-12-12-12-15-12-12-12-|12-10-10-10-10-12-10----|12----12----12----12----|10b12-10-7--------------|
B 12-12-12-12-12-12-12-12-|12-10-10-10-10-10-10----|13----13----13----13----|------------10-8-10-----|
G ------------------------|------------------------|------------------------|------------------------|
D ------------------------|------------------------|------------------------|------------------------|
A ------------------------|------------------------|------------------------|------------------------|
E ------------------------|------------------------|------------------------|------------------------|

E ------------------------|------------------------|------------------------|------------------------|
B 10---b12-10b12b10-8-----|------8-h10-8-----------|------------------------|7--7--7-----7--8--8-----|
G ---------------------9--|7-h9-----------9--7-----|------7-----9-----7-----|7--7--7-----7--7--7-----|
D ------------------------|---------------------9--|7-h9--------------------|7--7--7-----7--7--7-----|
A ------------------------|------------------------|------------------------|------------------------|
E ------------------------|------------------------|------------------------|------------------------|


Final Chorus Lead:
E ------------------------|------------------------|------------------------|------------------------|
B 8-----8-----8-----8-----|8-----8-----8-----8-----|7-----7-----7-----7-----|8-----8-----8-----8-----|
G 7-----7-----7-----7-----|7-----7-----7-----7-----|7-----7-----7-----7-----|7-----7-----7-----7-----|
D ------------------------|------------------------|------------------------|------------------------|
A ------------------------|------------------------|------------------------|------------------------|
E ------------------------|------------------------|------------------------|------------------------|

E ------------------------|------------------------|------------------------|------------------------|
B 8-----8-----8-----8-----|8-----8-----8-----8-----|7-----7-----7-----7-----|10----10----10----10----|
G 7-----7-----7-----7-----|7-----7-----7-----7-----|7-----7-----7-----7-----|7-----7-----7-----7-----|
D ------------------------|------------------------|------------------------|------------------------|
A ------------------------|------------------------|------------------------|------------------------|
E ------------------------|------------------------|------------------------|------------------------|

E ------------------------|------------------------|------------------------|------------------------|
B 8-----8-----8-----8-----|8-----8-----8-----8-----|7-----7-----7-----7-----|8-----8-----8-----8-----|
G 7-----7-----7-----7-----|7-----7-----7-----7-----|7-----7-----7-----7-----|7-----7-----7-----7-----|
D ------------------------|------------------------|------------------------|------------------------|
A ------------------------|------------------------|------------------------|------------------------|
E ------------------------|------------------------|------------------------|------------------------|

E ------------------------|------------------------|
B 8-----8-----8-----8-----|10----------------------|
G 7-----7-----7-----7-----|7-----------------------|
D ------------------------|------------------------|
A ------------------------|------------------------|
E ------------------------|------------------------|


Ending:
E ------------------------|------------0-----------|
B 8--8--8-----7--7--7--7--|------------0-----------|
G 7--7--7-----7--7--7--7--|------------0-----------|
D 7--7--7-----7--7--7--7--|------------2-----------|
A ------------------------|------------2-----------|
E ------------------------|------------0-----------|


Song Progression:

Main Hook
Verse
Chorus
Main Hook
Verse
Chorus
Main Hook
Chorus
Guitar Solo
Chorus Lead
Main Hook
Ending
Comments