Grand Prize - Break Down Chords & Tabs

 

Break Down Chords & Tabs

Grand Prize Chords & Tabs

Version: 1 Type: Tab 0 ratings
1 star 2 stars 3 stars 4 stars 5 stars
comments

Break Down Tab

   
Break Down, by Luke Caldwell
Music by Grand Prize


Electric Guitar is tuned 1/2 step down (Eb, Ab, Db, Gb, Bb, Eb)


Intro Lead:
  1     2     3     4      1     2     3     4      1     2     3     4      1     2     3     4
E ------------------------|------------------------|------------------------|------------------------|
B 4-----------4-----3-----|4-----------4-----3-----|4-----------4-----3-----|6-----------6-----3-----|
G 5-----------5-----3-----|5-----------5-----3-----|5-----------5-----3-----|7-----------7-----3-----|
D ------------------------|------------------------|------------------------|------------------------|
A ------------------------|------------------------|------------------------|------------------------|
E ------------------------|------------------------|------------------------|------------------------|

E ------------------------|------------------------|------------------------|------------------------|
B 4-----------4-----3-----|4-----------4-----3-----|4-----------4-----3-----|6-----------------------|
G 5-----------5-----3-----|5-----------5-----3-----|5-----------5-----3-----|7-----------------------|
D ------------------------|------------------------|------------------------|------------------------|
A ------------------------|------------------------|------------------------|------------------------|
E ------------------------|------------------------|------------------------|------------------------|

E ------------------------|
B ------------------------|
G h8----------------------|
D ------------------------|
A ------------------------|
E ------------------------|


1st Pre-Chorus Lead:
  1     2     3     4      1     2     3     4      1     2     3     4      1     2     3     4
E ------------------------|------------------------|------------------------|------------------------|
B 4-----------4-----3-----|4-----------4-----3-----|4-----------4-----3-----|6-----------6-----3-----|
G ------------------------|------------------------|------------------------|------------------------|
D ------------------------|------------------------|------------------------|------------------------|
A ------------------------|------------------------|------------------------|------------------------|
E ------------------------|------------------------|------------------------|------------------------|

E ------------------------|------------------------|------------------------|------------m--m--m--m--|
B 4-----------4-----3-----|4-----------4-----3-----|4-----------4-----3-----|6-----------m--m--m--m--|
G ------------------------|------------------------|------------------------|------------m--m--m--m--|
D ------------------------|------------------------|------------------------|------------m--m--m--m--|
A ------------------------|------------------------|------------------------|------------m--m--m--m--|
E ------------------------|------------------------|------------------------|------------m--m--m--m--|


Chorus (repeats 6 times):
  1     2     3     4      1     2     3     4      1     2     3     4      1     2     3     4
E ------------------------|------------------------|------------------------|------------------------|
B ------------------------|------------------------|------------------------|------------------------|
G ------------------------|------------------------|------------------------|8-----8--8--7-----7--7--|
D 6-----------6-----------|10----------10----------|8-----------8-----8--8--|8-----8--8--8-----8--8--|
A 6-----------6-----------|10----------10----------|8-----------8-----8--8--|8-----8--8--8-----8--8--|
E 4-----------4-----------|8-----------8-----------|6-----------6-----6--6--|6-----6--6--6-----6--6--|

[ Tab from: http://www.guitartabs.cc/tabs/g/grand_prize/break_down_tab.html ]
Intro to 2nd verse:
  1     2     3     4      1     2     3     4      1     2     3     4      1     2     3     4
E ------------------------|------------------------|------------------------|------------------------|
B ------------------------|------------------------|------------------------|------------------------|
G 5-----------5-----3-----|5-----------5-----3-----|5-----------5-----3-----|7-----------7-----3-----|
D ------------------------|------------------------|------------------------|------------------------|
A ------------------------|------------------------|------------------------|------------------------|
E ------------------------|------------------------|------------------------|------------------------|

E ------------------------|------------------------|------------------------|------------------------|
B ------------------------|------------------------|------------------------|------------------------|
G 5-----------5-----3-----|5-----------5-----3-----|5-----------5-----3-----|7-----------------------|
D ------------------------|------------------------|------------------------|------------------------|
A ------------------------|------------------------|------------------------|------------------------|
E ------------------------|------------------------|------------------------|------------------------|

E ------------------------|
B ------------------------|
G h8----------------------|
D ------------------------|
A ------------------------|
E ------------------------|


2nd Pre-Chorus Lead:
  1     2     3     4      1     2     3     4      1     2     3     4      1     2     3     4
E ------------------------|------------------------|------------------------|------------------------|
B 4-----------4-----3-----|4-----------4-----3-----|4-----------4-----3-----|6-----------6-----3-----|
G 5-----------5-----3-----|5-----------5-----3-----|5-----------5-----3-----|7-----------7-----3-----|
D ------------------------|------------------------|------------------------|------------------------|
A ------------------------|------------------------|------------------------|------------------------|
E ------------------------|------------------------|------------------------|------------------------|

E ------------------------|------------------------|------------------------|------------m--m--m--m--|
B 4-----------4-----3-----|4-----------4-----3-----|4-----------4-----3-----|6-----------m--m--m--m--|
G 5-----------5-----3-----|5-----------5-----3-----|5-----------5-----3-----|7-----------m--m--m--m--|
D ------------------------|------------------------|------------------------|------------m--m--m--m--|
A ------------------------|------------------------|------------------------|------------m--m--m--m--|
E ------------------------|------------------------|------------------------|------------m--m--m--m--|


Bridge (repeats 3 times):
  1     2     3     4      1     2     3     4      1     2     3     4      1     2     3     4
E 3--3--3--3--3--3--3--3--|3--3--3--3--3--3--3--3--|3--3--3--3--3--3--3--3--|3--3--3--3--3--3--3--3--|
B 4--4--4--4--4--4--4--4--|4--4--4--4--4--4--4--4--|4--4--4--4--4--4--4--4--|4--4--4--4--4--4--4--4--|
G 5--5--5--5--5--5--5--5--|5--5--5--5--5--5--5--5--|5--5--5--5--5--5--5--5--|5--5--5--5--5--5--5--5--|
D ------------------------|------------------------|------------------------|------------------------|
A ------------------------|------------------------|------------------------|------------------------|
E ------------------------|------------------------|------------------------|------------------------|

E ------------------------|------------------------|------------------------|------------------------|
B 6--6--6--6--6--6--6--6--|6--6--6--6--6--6--6--6--|6--6--6--6--6--6--6--6--|6--6--6--6--6--6--6--6--|
G 7--7--7--7--7--7--7--7--|7--7--7--7--7--7--7--7--|7--7--7--7--7--7--7--7--|7--7--7--7--7--7--7--7--|
D 8--8--8--8--8--8--8--8--|8--8--8--8--8--8--8--8--|8--8--8--8--8--8--8--8--|8--8--8--8--8--8--8--8--|
A ------------------------|------------------------|------------------------|------------------------|
E ------------------------|------------------------|------------------------|------------------------|


Final Chord:
E ------------------------|------------------------|------------------------|------------------------|
B ------------------------|------------------------|------------------------|------------------------|
G 5-----------------------|------------------------|------------------------|------------------------|
D 5-----------------------|------------------------|------------------------|------------------------|
A 3-----------------------|------------------------|------------------------|------------------------|
E ------------------------|------------------------|------------------------|------------------------|

Song Progression:

Intro
Verse
Pre-Chorus
Chorus
2nd Intro
Verse 2
2nd Pre-Chorus
Chorus
Bridge
Chorus (acoustic & vocal only)
Chorus x2
Ending
Comments