Grand Funk Railroad - Were An American Band Chords & Tabs

 

Were An American Band Chords & Tabs

Grand Funk Railroad Chords & Tabs

Version: 3 Type: Bass Tab 0 ratings
1 star 2 stars 3 stars 4 stars 5 stars
comments

Were An American Band Bass Tab

   
I see this song done wrong alot, I thought I'd show you how it's REALLY played.

Intro:
G:--------------------------------------------------------------------------
D:--------------------------------------------------------------------------
A:--------------------------------------------------------------------------
E:1010101010101010101010101010-88888888888888888-66666666-8888888-1010101010

Verse:

G:-------------------------------------
D:-------------------------10h12-------
A:--------------------10h12-------8-7--
E:10-10-10/-10-10-10/-----------10---8-

You don't have to do the first slide on the D's, but I do, cause it sounds
way better. And listen carefully, you can hear those hammer-ons.

Bridge:

G:-------------------------------------------------------------
D:-------------------------------------------------------------
A:10-10-10-10-10-10-10-----------------------------------------
E:--------------------10-10-10-10-10-10-10-8-8-8-8-10-10-10-10-
[ Tab from: http://www.guitartabs.cc/tabs/g/grand_funk_railroad/were_an_american_band_btab_ver_3.html ]
G:---------------------------------------------------------------------------
D:---------------------------------------------------------------------------
A:10-10-10-10-10-10-10--------------------8-8-8-8-8-8-8-10-10-10-10-10-10-10-
E:--------------------10-10-10-10-10-10-10-----------------------------------

Chrous/Intro:
G:--------------------------------------------------------------------------
D:--------------------------------------------------------------------------
A:--------------------------------------------------------------------------
E:1010101010101010101010101010-88888888888888888-66666666-8888888-1010101010

There's another Verse, then a chrous, with bass licks in it. Then the solo,
which you do the Bridge in, then the chrous, and end with:

Outro:
G:--------------------------------------------------------------------------
D:--------------------------------------------------------------------------
A:--------------------------------------------------------------------------
E:10-10-10-10-10-10-8--8--8h10-10-10-10-10-10-10-8--8--8h10-10-10-10------10
  "We're an a. . "  "O O  O "
Comments