Grand Funk Railroad - Were An American Band Chords & Tabs

 

Were An American Band Chords & Tabs

Grand Funk Railroad Chords & Tabs

Version: 2 Type: Bass Tab 0 ratings
1 star 2 stars 3 stars 4 stars 5 stars
comments

Were An American Band Bass Tab

   
We're An American Band - Grand Funk Railroad

  intro/chorus
G|---------------------------------------------------------------|
D|---------------------------------------------------------------|
A|5555555555555555333333333333333311111111333333335-5-5-5-3-3-3-3|
E|---------------------------------------------------------------|

  main rifF
G|-----------------------------------|
D|-----------------------------3-2---|
A|5-5\--5-5\-----3h53--030-0-5-----3-|
E|------------3h5--------------------|
[ Tab from: http://www.guitartabs.cc/tabs/g/grand_funk_railroad/were_an_american_band_btab_ver_2.html ]
  verse
G|---------------------------------------------------------------------------|
D|------------7p5----------5p3----------7p5----------------------------------|
A|--------5-5------7-5-3-3------5-3-5-5------7-5---------5-5-5-5-------------|
E|3-3-3-3----------------------------------------3-3-3-3---------1-1-1-3-3-3-|

 song outro
|---------------------------------------------|
|---------------------------------------------|
|5--5--5--5--5--5--5--5--5--5--5--5--5--5--3--|
|---------------------------------------------|

tabbed by Achilles (blue_sincere@hotmail.com)
Comments