Grand Funk Railroad - Time Machine Chords & Tabs

 

Time Machine Chords & Tabs

Grand Funk Railroad Chords & Tabs

Version: 2 Type: Bass Tab 0 ratings
1 star 2 stars 3 stars 4 stars 5 stars
comments

Time Machine Bass Tab

Time Machine - Grand Funk Railroad

  intro
G|------------------------------9-97-7--9---9-97-7-7----------------------------9-97-7--9-
D|7\----7-75-5--7---7-75-5--7---------79----------9-9---9-97-7--9---7-75-5--7---------79--
A|---0-0------57-0-0------57-7-7---------7-7------------------79-0-0------57-7-7----------
E|---------------------------------------------------7-7----------------------------------


-------------|
3-3----------|
------0-0345-|
---5-5-------|

verse/guitar solo
[ Tab from: http://www.guitartabs.cc/tabs/g/grand_funk_railroad/time_machine_btab_ver_2.html ]
G|---9-97-7--9---9-97-7--9---9-97-7--9---9-97-7--9---------------------------9-97-7--9
D|---------79----------79----------79----------79----7-75-5--7---7-75-5--7---------79-
A|7-7---------7-7---------7-7---------7-7---------0-0------57-0-0------57-7-7---------
E|------------------------------------------------------------------------------------

---9-97-7--9---------------------------9-97-7--9---9-97-7--9-|
---------79----9-97-7--9---7-75-5--7---------79----------79--|
7-7------------------79-0-0------57-7-7---------7-7----------|
------------7-7----------------------------------------------|

harmonica solo
  (x3)                            (x2)          (x2)
G|---------7---|5-57-79-911--11-|-------------|---------7---|--------------------------
D|---6-69-9--7-|-5--7--9---11---|---------5---|---6-69-9--7-|------5-58-5-------3-36-3-
A|7-7----------|----------------|---4-47-7--7-|7-7----------|3-36-6-------0-04-4-------
E|-------------|----------------|5-5----------|-------------|--------------------------


---9--7--7-7----9--7--7-7-|
-----9--9-9-------9--9-9--|
7-7----------7-7----------|
--------------------------|

tabbed by Achilles (blue_sincere@hotmail.com)

Comments