Grand Funk Railroad - Rock And Roll Soul Chords & Tabs

 

Rock And Roll Soul Chords & Tabs

Grand Funk Railroad Chords & Tabs

Version: 1 Type: Tab 0 ratings
1 star 2 stars 3 stars 4 stars 5 stars
comments

Rock And Roll Soul Tab

   
-------------------------------------------------------------------------------
			     Rock & Roll Soul - Grand Funk Railroad
				Album: Caught in the Act
-------------------------------------------------------------------------------
Tabbed by: Jody DeBernardo
Email:	jdeberna@telusplanet.net		D*- This chord is a 
						D add 11(no 5th)

Tuning:E

     E	      D*    A  D   E	      D*    A  D   E
e|--------------------------------------------------------------------------|
B|--------------------------------------------------------------------------|
G|---9--9-----7--7-----7-7/9-9--------7--7-----7-7/9-9----------------------|
D|---9--9-----5--5--7--7-7/9-9--------5--5--7--7-7/9-9--x-x-x-x-x-x-x-x-x-x-|
A|---7--7-----9--9--7--5-5/7-7--------9--9--7--5-5/7-7--x-x-x-x-x-x-x-x-x-x-|
E|------------------5-----------------------5-------------------------------|


								repeat
e|--------------------------------------------------------------------------|
B|--------------------------------------------------------------------------|
G|--7--7-----7-7/9-9------------------------7--7-----7-7/9-9----------------|
D|--5--5--7--7-7/9-9--x-x-x-x-x-x-x-x-x-x---5--5--7--7-7/9-9--x-x-x-x-x-x-x-|
A|--9--9--7--5-5/7-7--x-x-x-x-x-x-x-x-x-x---9--9--7--5-5/7-7--x-x-x-x-x-x-x-|
E|--------5---------------------------------------5-------------------------|
					    Nothing but a party...


e|--------------------------------------------------------------------------|
B|--------------------------10b--10-8---10---8------------------------------|
G|-7--7-----7-7/9-9------9----------------------7-9----7---9----9-----------|
D|-5--5--7--7-7/9-9--------------------------------------------------9-9-9-9|
A|-9--9--7--5-5/7-7--------------------------------------------------7-7-7-7|
E|-------5------------------------------------------------------------------|
			The name of the song is a rock and roll soul

  D* A  D E		     D*	A  D E				repeat
e|--------------------------------------------------------------------------|
B|--------------------------------------------------------------------------|
G|7-----7/9-9-x--9--9--9-9--7----7/9-9-x--9--9--9-9--7----7/9-9-x--9--9--9-9|
D|5--7--7/9-9-x--9--9--9-9--5--7-7/9-9-x--9--9--9-9--5-7--7/9-9-x--9--9--9-9|
A|9--7--5/7-7----7--7--7-7--9--7-5/7-7----7--7--7-7--9-7--5/7-7----7--7--7-7|
E|---5-------------------------5-----------------------5--------------------|
							       Were having...

					 E
e|-------------------------------------------------------------------------|
B|-------------------------------------------------------------------------|
G|-7----7/9-7h9--9--7h9--9--7h9-9--7-----9---------------------------------|
D|-5-7--7/9-7h9--9--7h9--9--7h9-9--5-7---9---------------------------------|
A|-9-7--5/7-7-7--7--7-7--7--7-7-7--9-7---7---------------------------------|
E|---5-------------------------------5-------------------------------------|
					 It ain't every body...

                       
e|-----------------------9----------------5---------------------------------|
B|-----------------------9----------------5---------------------------------|
G|-8---------------------10---------------6------------------9---9---9----9-|
D|-9---------------------11---------------7------------------7---7---7----9-|
A|-9---------------------11---------------7------------------5---5---5----7-|
E|-7---------------------9----------------5---------------------------------|
  so when you what you got let everybody know you got some rock and roll soul

         
e|---------------------------7-----------------------------------------7----|
B|---------------------------7-----------------------------------------7----|
G|-7-------------7---7----8--8----9---------------------7----7------8--8--9-|
D|-5--7--7--7----5---5----9--9----9----0--2p0--------7--5----5------9--9--9-|
A|-9--7--7--7----9---9----9-------7------------3--0--7--9----9------9-----7-|
E|----5--5--5-------------7--------------------------5--------------7-------|
						               

           				B       E		 A  D*	 B	E   
e|-----------------------------------------7--------------------------------|
B|-----------------------------------------7--------------------------------|
G|------------------------7----7--------8--8----9---------------------------|
D|-0--2p0--------------7--5----5--------9--9----9---0--2p0------------------|
A|----------3--0-------7--9----9--------9-------7----------3--0-------------|
E|---------------------5----------------7-----------------------------------|
		  It's kinda ..


   E			    A	    C		    D		      E
e|--------------------------5-----------------------------------------------|
B|--------------------------5-----------------------------------------------|
G|-9------------------------6-------5---------------7----------------9------|
D|-9------------------------7-------5---------------7----------------9------|
A|-7------------------------7-------3---------------5----------------7------|
E|--------------------------------------------------------------------------|
	Tell every body you know      you got some rock and roll soul

    D D# E		    A	   C		    D		      E
e|--------------------------------------------------------------------------|
B|--------------------------------------------------------------------------|
G|-7--8--9------------------------------------------------------------------|
D|-7--8--9------------------------------------------------------------------|
A|-5--6--7------------------------------------------------------------------|
E|--------------------------------------------------------------------------|

[ Tab from: http://www.guitartabs.cc/tabs/g/grand_funk_railroad/rock_and_roll_soul_tab.html ]
e|-15p12-----------------12---------------------12----------12-----15b--15b-|
B|-------15p12--15b-15b-----15p12----12--15p12------15~--------12-----------|
G|--------------------------------14----------------------------------------|
D|--------------------------------------------------------------------------|
A|--------------------------------------------------------------------------|
E|--------------------------------------------------------------------------|

e|12----12---------15p12--12-15p12--12-15p12--12----------------------------|
B|---15----15b----------15--------15--------15--15b--12h15-12---------------|
G|-----------------------------------------------------------14b-14-12h14p12|
D|--------------------------------------------------------------------------|
A|--------------------------------------------------------------------------|
E|--------------------------------------------------------------------------|

e|--------------------------------------------------------------------------|
B|---------15p12---------15p12----------15p12------15b-15-12----------------|
G|--12h14b------14-12h14b------14-12h14b------14-12---------12h14b-14p12----|
D|-----------------------------------------------------------------------14-|
A|--------------------------------------------------------------------------|
E|--------------------------------------------------------------------------|
						E   		    A
e|------------------------------------------------------------------5-------|
B|-------15p12------------------------------------------------------5-------|
G|-12h14b------14p12-14p12----12b---------------9-------------------6-------|
D|-------------------------14-----14-12----12---9-------------------7-------|
A|--------------------------------------14------7-------------------7-------|
E|--------------------------------------------------------------------------|
						Tell everybody you know...

   C		D	E	D  D#  E	A	C	D	  E
e|--------------------------------------------------------------------------|
B|--------------------------------------------------------------------------|
G|-5------------7-----------------------------------------------------------|
D|-5------------7-----------------------------------------------------------|
A|-3------------5-----------------------------------------------------------|
E|--------------------------------------------------------------------------|


e|------------------------/15-17-18-17p15---15-17-18-17p15---15-------------|
B|-/17-17-17-17-17-17-17-----------------17---------------17----17p15-17p15-|
G|-/16-16-16-16-16-16-16----------------------------------------------------|
D|--------------------------------------------------------------------------|
A|--------------------------------------------------------------------------|
E|--------------------------------------------------------------------------|

e|--------------------------------------------------------------------------|
B|----15-17p15-17p15---17p15------------------------------------------------|
G|-16---------------16--------16--14--12----------------12----12------------|
D|---------------------------------------14p12-14-------12h14-12-12-14p12-14|
A|------------------------------------------------12h14---------------------|
E|--------------------------------------------------------------------------|


e|--------------------------------------------------------------------------|
B|--------------------------------------------------------------------------|
G|------12----12----------12----12----------12----12-----------------14-14b-|
D|------12h14-12----------12h14-12----------12h14-12----12h14p12------------|
A|-12h14---------12-12h14----------12-12h14----------14----------14---------|
E|--------------------------------------------------------------------------|

e|--------------------------------------------------------------------------|
B|--------------------------------------------------------------------------|
G|-0h2p0h2p0h2p0h2p0h2p0h2p0h2p0h2p0h2p0h2p0h2p0h2p0h2p0h2p0h2p0h2p0h2p0h2p-|
D|--------------------------------------------------------------------------|
A|--------------------------------------------------------------------------|
E|--------------------------------------------------------------------------|

e|--------------------------------------------------------------------------|
B|--------------------------------------------------------------------------|
G|-2b-------2br0---------------0----------0----------0----------------------|
D|---------------2--2p0--0-2p0---2--0-2p0---2--0-2p0---2--2-2p0-------------|
A|--------------------------------------------------------------2p0---------|
E|------------------------------------------------------------------3--0----|

   E		      A    C G		    D    A	 E
e|--------------------5-----------------------------------------------------|
B|--------------------5-----------------------------------------------------|
G|-9------------------6----5-4--------------7----6-------9------------------|
D|-9------------------7----5-5--------------7----7-------9------------------|
A|-7------------------7----3-5--------------5----7-------7------------------|
E|---------------------------3-------------------5--------------------------|
   Tell everybody you know    you got some rock and roll soul.

			    E
e|--------10----------5-----------------------------------------------------|
B|--------10-10-------5--5--------------------------------------------------|
G|-7h9/11----11--9--/6------9-----------------------------------------------|
D|--------------------------9-----------------------------------------------|
A|--------------------------7-----------------------------------------------|
E|--------------------------------------------------------------------------|


| B  bend
| /  slide up
| \  slide down
| h  hammer-on
| p  pull-off
| ~  vibrato
| +  harmonic
| x  Mute note
===============================================================================
Comments