Grand Funk Railroad - Paranoid Chords & Tabs

 

Paranoid Chords & Tabs

Grand Funk Railroad Chords & Tabs

Version: 1 Type: Tab 0 ratings
1 star 2 stars 3 stars 4 stars 5 stars
comments

Paranoid Tab

   
-----------------------------------------------------------------------------
			     Paranoid - Grand Funk Railroad
			     Album: Grand Funk
-----------------------------------------------------------------------------
Tabbed by: Jody DeBernardo
Email:jdeberna@telusplanet.net

Tuning:E

   E	  G	   D	  A
e|--------------------------------------------------------------------------|
B|--------------------------------------------------------------------------|
G|-9----9/12----12\7----7\2-------------------------------------------------|
D|-9----9/12----12\7----7\2-----9\8--9\8--9\8--9/12--12\11-12\11-12\11-12\7-|
A|-7----7/10----10\5----5\0-----7\6--7\6--7\6--7/10--10\9--10\9--10\9--10\5-|
E|--------------------------------------------------------------------------|

					Repeat with wah
e|-----------------------------------------------|
B|-----------------------------------------------|
G|--------------------------------------------9--|
D|-7\6-7\6-7\6-7/14--14\13-14\13-14\13-14-----9--|
A|-5\4-5\4-5\4-5/12--12\11-12\11-12\11-12-----7--|
E|-----------------------------------------------|

e|-------------------------------------------------------------------------|
B|-------------------------------------------------------------------------|
G|-------------------------------------------------------------------------|
D|------------------------------------------4-----0-0----------4--4-0-0-0--|
A|---2-4-5-5-4---2-4-5----2-4-5-5-4---2-4-5---5p4-4h5-2--2-2-4-5--5-4h5-4--|
E|-0-----------0--------0-----------0--------------------0-0-0-------------|


			  |repeat					|
e|-----------------------------------------------------------------------|
B|-----------------------------------------------------------------------|
G|-----------------------------------------------------------------------|
D|-------4--4-----0-0-----------4--4-0-0-0---------4-4-0-0-0-------------|
A|-2-2-4-5----5p4-4h5-2---2-2-4-5--5-4h5-4-0-2-2-4-5-5-4h5-4-0-----------|
E|-0-0-0------------------0-0-0--------------0-0-0-----------------------|
							 Did you ever..
		
						repeat
e|-----------------------------------------------------------------------|
B|-10-10--10-10--8-8-8-5-5--10-10--10-10--8-8-8-5-5-------------5-5-5-5--|
G|-11-11--9--9---7-7-7-6-6--11-11--9--9---7-7-7-6-6-------------6-6-6-6--|
D|-12-12--11-11--9-9-9-7-7--12-12--11-11--9-9-9-7-7-------------7-7-7-7--|
A|-----------------------------------------------------------------------|
E|-----------------------------------------------------------------------|
   Who wasn't....

1st solo

e|-------12-15b-15b-12---12----------------------------------------------|
B|-12h15--------------15---15br-12-15p-12----------15--15--15--(15)-15---|
G|----------------------------------------14-12----14b-14b-14br(14)-12---|
D|----------------------------------------------14--------------------14-|
A|-----------------------------------------------------------------------|
E|-----------------------------------------------------------------------|

e|-------------------------------------------------------------|
B|-15-15-------------------------------------------------------|
G|-14-12----------12--14b-14brp12-12h14-12-------12-12/14--12--|
D|-------14p12-14--------------------------14-14---------------|
A|-------------------------------------------------------------|
E|-------------------------------------------------------------|

2nd solo

e|-17-17-17-17b--17-17-17-17b--17-17-17-17b--17-17-17-17b--17-17-17-17b-|
B|--------------------------------------17------------------------------|
G|----------------------------------------------------------------------|
D|----------------------------------------------------------------------|
A|----------------------------------------------------------------------|
E|----------------------------------------------------------------------|

e|-17-17-17-17b-17b-17b-17b-15-15/17-15-------------------------------------|
B|-------------------------------------17-----------------------------------|
G|----------------------------------------12/14-12-14p12-14p12---12---------|
D|------------------------------------------------------------14---14-12-14-|
A|--------------------------------------------------------------------------|
E|--------------------------------------------------------------------------|


e|----------------------------------------------------12--------------------|
B|-------15--------------------------------------12h15---15b-15b-15br-12----|
G|-12-14b---14br-12---14p12-14-12-12/15-12-14p12-------------------------14-|
D|-----------------14-------------------------------------------------------|
A|--------------------------------------------------------------------------|
E|--------------------------------------------------------------------------|


e|------------------------------------------------------|
B|-----------------------15-----15------15--------------|
G|-12h14-14-12--------------14b----14b--14br-12/14--12--|
D|-------------14p12-14---------------------------------|
A|------------------------------------------------------|
E|------------------------------------------------------|

e|--------------------------------------------------------------------------|
B|--------------------------------------------------------------------------|
G|--------------------------------------------------------------------------|
D|--------------------------------------------------------------------------|
A|-11-11-12-14-14-12--11-11-------------------------11-11-12-14-14-12--11-11|
E|--------------------------12-10-14p12-14p12-14p12-------------------------|

[ Tab from: http://www.guitartabs.cc/tabs/g/grand_funk_railroad/paranoid_tab.html ]
e|--------------------------------------------------------------------------|
B|--------------------------------------------------------------------------|
G|--------------------------------------------------------------------------|
D|--------------------------------------------------------------------------|
A|-------------------------11-11-12-14-14-12--11h12-11h12-11h12-11----------|
E|-12-10-14p12-14p12-14p12--------------------------------------------------|

	    Em					B		       Em
e|--------------------------------------------------------------------------|
B|----------8----------------------------------------------------------8----|
G|----------9----------------------------------------------------------9----|
D|----------9-----------------------------------9----------------------9----|
A|----------7-----------------------------------9----------------------7----|
E|----------------------------------------------7---------------------------|
  You don't have..				there all by yourself
  You ain't feeling..

   Em								B
e|-----------------------------------------------------------------------|
B|-8---------------------------------------------------------------------|
G|-9---------------------------------------------------------------------|
D|-9------------------------------------------------------------9--------|
A|-7------------------------------------------------------------9--------|
E|--------------------------------------------------------------7--------|

  E	  G	   D	  A
e|--------------------------------------------------------------------------|
B|--------------------------------------------------------------------------|
G|-9----9/12----12\7----7\2-------------------------------------------------|
D|-9----9/12----12\7----7\2-----9\8--9\8--9\8--9/12--12\11-12\11-12\11-12\7-|
A|-7----7/10----10\5----5\0-----7\6--7\6--7\6--7/10--10\9--10\9--10\9--10\5-|
E|--------------------------------------------------------------------------|

e|-------------------------------------------15p14p12-12------------|
B|------------------------------------------------------15p14p12-12-|
G|------------------------------------------------------------------|
D|-7\6-7\6-7\6-7/14--14\13-14\13-14\13-14---------------------------|
A|-5\4-5\4-5\4-5/12--12\11-12\11-12\11-12---------------------------|
E|------------------------------------------------------------------|


								repeat 3x
e|-15p14p12-12-----------15p14p12-12-----------15p14p12-12---------------|
B|------------15p14p12-12-----------15p14p12-12-----------15p14p12-12----|
G|-----------------------------------------------------------------------|
D|-----------------------------------------------------------------------|
A|-----------------------------------------------------------------------|
E|-----------------------------------------------------------------------|

e|-15p14p12-12------------------------------------------------------------|
B|------------15p14p12-12-15p14p12-12-15p14p12-12-15p14p12-12-15p14p12-12-|
G|------------------------------------------------------------------------|
D|------------------------------------------------------------------------|
A|------------------------------------------------------------------------|
E|------------------------------------------------------------------------|

e|----------------------------------------------------------------------12-|
B|-15p14p12-12-15p14p12-12--------------------------------------------12---|
G|-------------------------12h14--14p12-----12h14-12-----------12h14b------|
D|--------------------------------------14-----------14p12h14--------------|
A|-------------------------------------------------------------------------|
E|-------------------------------------------------------------------------|

e|----12------15b-15b-12--12-----------------15-17b-17b-15-17-15-----------|
B|-15b--15-12-----------15---15b-15-12-15/17---------------------17-17-17--|
G|-------------------------------------------------------------------------|
D|-------------------------------------------------------------------------|
A|-------------------------------------------------------------------------|
E|-------------------------------------------------------------------------|

e|---------------------------------------------------------------------|
B|-15------------------------------------------------------------------|
G|----16\14-12----------------------------9----9/12----12\7----7\2-----|
D|-------------14-12-14--14-12h14--14-----9----9/12----12\7----7\2-----|
A|----------------------------------------7----7/10----10\5----5\0-----|
E|---------------------------------------------------------------------|

e|------------------------------------------------------------------|
B|------------------------------------------------------------------|
G|------------------------------------------------------------------|
D|-9\8--9\8--9\8--9/12--12\11-12\11-12\11-12\7---7\6-7\6-7\6-7/14---|
A|-7\6--7\6--7\6--7/10--10\9--10\9--10\9--10\5---5\4-5\4-5\4-5/12---|
E|------------------------------------------------------------------|

e|------------------------------------------------------------------|
B|------------------------------------------------------------------|
G|-----------------------9------7-8-9-x-x-x-9---7-8-9-x-x-x-12------|
D|-14\13-14\13-14\13-14--9------7-8-9-x-x-x-9---7-8-9-x-x-x-12------|
A|-12\11-12\11-12\11-12--7------5-6-7-------7---5-6-7-------10------|
E|------------------------------------------------------------------|

e|--------------------------------------------------------------|
B|--------------------------------------------------------------|
G|-7-8-9-x-x-x-7---7-8-9-x-x-x-2--------------------------------|
D|-7-8-9-x-x-x-7---7-8-9-x-x-x-2--------------------------------|
A|-5-6-7-------5---5-6-7-------0--------------------------------|
E|--------------------------------------------------------------|


| br bend and release
| B  bend
| /  slide up
| \  slide down
| h  hammer-on
| p  pull-off
| ~  vibrato
| +  harmonic
| x  Mute note
=============================================================================
Comments