Grand Funk Railroad - Inside Looking Out Chords & Tabs

 

Inside Looking Out Chords & Tabs

Grand Funk Railroad Chords & Tabs

Version: 1 Type: Tab 0 ratings
1 star 2 stars 3 stars 4 stars 5 stars
comments

Inside Looking Out Tab

   
-----------------------------------------------------------------------------
			     Inside Looking Out - Grand Funk Railroad
			     Album: Grand Funk
-----------------------------------------------------------------------------
Tabbed by: Jody DeBernardo
Email: jdeberna@telusplanet.net

Tuning:E
	  	G
e|---------------------------------------------------------------------|
B|---------------------------------------------------------------------|
G|--------------4------------------------------------------------------|
D|--------------5------------------------------------------------------|
A|--------------5------------------------------------------------------|
E|--------------3------------------------------------------------------|
  1. I'm      sitt'in here..

  3. 		Ice cold water ...

    F# G		G		F# G		G
e|--------------------------------------------------------------------|
B|--------------------------------------------------------------------|
G|-3--4-----------------4-4-4-----------------------------------------|
D|-4--5-----------------5-5-5-----------------------------------------|
A|-4--5-----------------5-5-5-----------------------------------------|
E|-2--3-----------------3-3-3-----------------------------------------|
  1.    no baby..

  3.    Those oats they're..

    G	      C	      Bb G	  C	Bb G	 	 C	Bb G	
e|-------------------------------------------------------------------|
B|------------5-5-5-5-3----------------------------------------------|
G|--4-4-------5-5-5-5-3----------------------------------------------|
D|--5-5-------5-5-5-5-3----------------------------------------------|
A|--5-5--------------------------------------------------------------|
E|--3-3--------------------------------------------------------------|
  1.   Life get's worse...

  3.   No no baby..

e|----------------------------------------------------------------------|
B|----------------------------------------------------------------------|
G|-------3h5p3p0----------------5b-5-3-----------3h5p3p0----------------|
D|-3-5-5--------5-5--3-5-3--3-5---------5--3-5-5---------5-5--3---3-----|
A|------------------------5-------------------------------------5---3---|
E|--------------------------------------------------------------------6-|


    G			G			G
e|---------------------------------------------------------------------|
B|---------------------------------------------------------------------|
G|--4---------------4--------------------------------------------------|
D|--5---------------5--------------------------------------------------|
A|--5-5-5-5-5-5-5-5-5--------------------------------------------------|
E|--3-3-3-3-3-3-3-3-3--------------------------------------------------|
  2.  		 I said now..


e|----------------------------------------------------------------------|
B|----------------------------------------------------------------------|
G|-------3h5p3p0----------------5b-5-3-----------3h5p3p0----------------|
D|-3-5-5--------5-5--3-5-3--3-5---------5--3-5-5---------5-5--3---3-----|
A|------------------------5-------------------------------------5---3---|
E|--------------------------------------------------------------------6-|



e|------------------------------------------------------------------------|
B|-----------------------------------------------6------------------------|
G|------------------------3h5p3------3h5p3-5b------5b--3h5-5p3----3-----5-|
D|---3--------3-3h5-3h5-5-------5-5---------------------------------------|
A|-5---3----5-------------------------------------------------------------|
E|-------6----------------------------------------------------------------|



e|-----------------------------------------------------------------------|
B|-----------------------------------------------------------------------|
G|-3---------------------5p3p0---------------------------------5p3p0-5---|
D|-----5-3-5---------3h5-------5-5-(5b)-(5)-(5b)-(5)-(5b)--3h5-----------|
A|-----------------------------------------------------------------------|
E|-----------------------------------------------------------------------|

e|----------------------------------------------------------------|
B|----------------------------------------------------------------|
G|-3-(3b)-(3)-(3b)-(3)-(3b)------5p3p0----------------------------|
D|---------------------------3h5-------5-5-(5b)-(5)-(5b)-(5)-(5b)-|
A|----------------------------------------------------------------|
E|----------------------------------------------------------------|

					  
e|--------------------------------------------------------------------------|
B|--------------------------------------------------------------------------|
G|----5p3p0-5-3-(3b)-(3)-(3b)-(3)-(3b)-----5p3p0----------------------------|
D|3h5----------------------------------3h5-------5-5-(5b)-(5)-(5b)-(5)-(5b)-|
A|--------------------------------------------------------------------------|
E|--------------------------------------------------------------------------|

     G			repeat
e|-------------------------------------------------------------------------|
B|-------------------------------------------------------------------------|
G|---4-3-x-x-x-x-x--3-5--4-3-x-x-x-x-x-------------------------------------|
D|---5-3-x-x-x-x-x--3-5--5-3-x-x-x-x-x-------------------------------------|
A|---5---x-x-x-x-x-------5---x-x-x-x-x-------------------------------------|
E|---3-------------------3-------------------------------------------------|

								repeat
e|--------------------------------------------------------------------------|
B|--------------------------------------------------------------------------|
G|----3p0-5p3p0-3p0-5p3p0-3p0-5p3p0-3p0-5p3p0-3p0-5p3p0-3p0-5p3p0-3p0-5p3p0-|
D|-3h5----------------------------------------------------------------------|
A|--------------------------------------------------------------------------|
E|--------------------------------------------------------------------------|

e|-------------------------------------------------------------------------|
B|-------------------------------------------------------------------------|
G|-3p0-5p3p0-3p0-5p3p0-3p0-5p3p0-3p0-5p3p0-4p0-6p4p0-5p0-7p5p0-6p0-8p6p0---|
D|-------------------------------------------------------------------------|
A|-------------------------------------------------------------------------|
E|-------------------------------------------------------------------------|

e|-------------------------------------------------------------------------|
B|-------------------------------------------------------------------------|
G|-7p0-9p7p0-8p0-10p8p0-9p0-11p9p0-10p0-12p10p0-11p0-13p11p0-12p0-14p12p0--|
D|-------------------------------------------------------------------------|
A|-------------------------------------------------------------------------|
E|-------------------------------------------------------------------------|
[ Tab from: http://www.guitartabs.cc/tabs/g/grand_funk_railroad/inside_looking_out_tab.html ]
e|------------------------------------------------------------------15----|
B|----------------------------------------------------------------15--15--|
G|-13p0-15p13p0-14p0-16p14p0-15p0-17p15p0-15-17p15-17-15-17b--17b---------|
D|------------------------------------------------------------------------|
A|------------------------------------------------------------------------|
E|------------------------------------------------------------------------|


e|-------------------------18b-18b-15---15-15------------------------------|
B|-15-18p15-18b-18b-18b-15-----------18-------18-15------------------------|
G|--------------------------------------------------17-15-----------15-17b-|
D|--------------------------------------------------------17-17-17---------|
A|-------------------------------------------------------------------------|
E|-------------------------------------------------------------------------|

e|------------15----------------------------------------------------------|
B|-15h18p15-15--18-15-----------------------------------------------------|
G|--------------------17bp15-17p15---15h17-15--------------------15----15-|
D|--------------------------------17---------------15-15---15h17----17----|
A|------------------------------------------15/17-------17----------------|
E|------------------------------------------------------------------------|

e|-----------------15------------------------------------------------------|
B|------15h18p15-15--18-15-------------------------------------------------|
G|--17b-------------------17bp15-17p15---15h17-15--------------------15----|
D|------------------------------------17----------------15-15---15h17---17-|
A|------------------------------------------------15/17------17------------|
E|-------------------------------------------------------------------------|
						
								repeat
e|-----------------15----------------------15-----------------------15------|
B|------15h18p15-15--18-15------15h18p15-15--18-15-------15h18p15-15--18-15-|
G|15h17b------------------15h17b--------------------15h17b------------------|
D|--------------------------------------------------------------------------|
A|--------------------------------------------------------------------------|
E|--------------------------------------------------------------------------|

e|-----------------------------------------------------------------------|
B|-----------------------------------------------------------------------|
G|-15h17b-17p15--15-17p15--15-17p15--15-17p15--15-17p15--15-17b-17b-17b--|
D|-------------17--------17--------17--------17--------17----------------|
A|-----------------------------------------------------------------------|
E|-----------------------------------------------------------------------|

e|-------------------------------------------------------------------------|
B|-------------------------------------------------------------------------|
G|-17b-17b-17p15--15-17b-17b-17b-17b-17b--17p15--15-17p15--15-17p15--15h17-|
D|--------------17-----------------------------17--------17--------17------|
A|-------------------------------------------------------------------------|
E|-------------------------------------------------------------------------|

e|-------------------------------------------------------------------------|
B|-------------------------------------------------------------------------|
G|-------------------0--3------2-----0--3------0--3-----5\--3--------------|
D|-15-17-17-17-17\---0--3------2-----0--3------0--3-----5\--3--------------|
A|-------------------------------------------------------------------------|
E|-------------------------------------------------------------------------|


   G		     F  G		  F  G		 F  G  repeat
e|------------------------------------------------------------------------|
B|------------------------------------------------------------------------|
G|-4--4--4--4-4-4--4-2--4--4--4--4-4-4--4-2-------------------------------|
D|-5--5--5--5-5-5--5-3--5--5--5--5-5-5--5-3-------------------------------|
A|-5--5--5--5-5-5--5-3--5--5--5--5-5-5--5-3-------------------------------|
E|-3--3--3--3-3-3--3-1--3--3--3--3-3-3--3-1-------------------------------|
   I need you ...


   G  F# F  F# G F# F F# G F# F F# G F# F F# G
e|------------------------------------------------------------------------|
B|------------------------------------------------------------------------|
G|-4--3--2--3--4-----------------------------4-4--------------------------|
D|-5--4--3--4--5-----------------------------5-5--------------------------|
A|-5--4--3--4--5-----------------------------5-5--------------------------|
E|-3--2--1--2--3-----------------------------3-3--------------------------|
		   Make me..			 You better....

   G		     F  G		  F  G		 F  G  repeat
e|------------------------------------------------------------------------|
B|------------------------------------------------------------------------|
G|-4--4--4--4-4-4--4-2--4--4--4--4-4-4--4-2-------------------------------|
D|-5--5--5--5-5-5--5-3--5--5--5--5-5-5--5-3-------------------------------|
A|-5--5--5--5-5-5--5-3--5--5--5--5-5-5--5-3-------------------------------|
E|-3--3--3--3-3-3--3-1--3--3--3--3-3-3--3-1-------------------------------|

after harmonica 
  G		       G   F# F  F# G F# F F# G F# F F# G F# F F# G
e|---------------------------------------------------------------------|
B|---------------------------------------------------------------------|
G|-4-4-4---------------4--3--2--3--4-----------------------------------|
D|-5-5-5---------------5--4--3--4--5-----------------------------------|
A|-5-5-5---------------5--4--3--4--5-----------------------------------|
E|-3-3-3---------------3--2--1--2--3-----------------------------------|
					Make me feel...

e|--------------------------------------------------------------------------|
B|--------------------------------------------------------------------------|
G|------3h5p3p0-----------------5b-5-3----------3h5p3p0------3--5b-5b-5b-5b-|
D|3-5-5--------5-5--3-5-3--3--5--------5--3-5-5---------5-5-----------------|
A|-----------------------5--------------------------------------------------|
E|--------------------------------------------------------------------------|


e|--------------------------------------------------------------------------|
B|--------------------------------------------------------------------------|
G|-5b-5b-5b-5b-5-3-----3h5p3p0--------------------------------------3h5p3p0-|
D|-----------------5-5---------5-5--3----3----3----3----3----3--5-5---------|
A|------------------------------------3h5--3h5--3h5--3h5--3h5---------------|
E|--------------------------------------------------------------------------|


	            	  G		G		G
e|------------------------3------------------------------------------------|
B|------------------------3------------------------------------------------|
G|------------------------4------------------------------------------------|
D|-5-5--3--5-3----3--5----5------------------------------------------------|
A|-------------5----------5------------------------------------------------|
E|------------------------3------------------------------------------------|




| (12) note heard but not picked
| b  bend
| /  slide up
| \  slide down
| h  hammer-on
| p  pull-off
| ~  vibrato
| +  harmonic
| x  Mute note
===============================================================================
Comments