Grand Funk Railroad - I Dont Have To Sing The Blues Chords & Tabs

 

I Dont Have To Sing The Blues Chords & Tabs

Grand Funk Railroad Chords & Tabs

Version: 1 Type: Tab 0 ratings
1 star 2 stars 3 stars 4 stars 5 stars
comments

I Dont Have To Sing The Blues Tab

   
-----------------------------------------------------------------------------
	  I DON'T HAVE TO SING THE BLUES 	GRAND FUNK RAILROAD
	Album  Closer to Home
-----------------------------------------------------------------------------
Tabbed by: Jody DeBernardo
Email: jdeberna@telusplanet.net

Tuning:E

e|------------------------------------------------------------------------|
B|------------------------------------------------------------------------|
G|-------0---0------------------------------0----0------------------------|
D|-2---2-------4----4---2--2------2-------2--------4----4---2---2-------2-|
A|---0-----0-----0-----------0h4--------0-----0------0-------------0h4----|
E|------------------------------------------------------------------------|

e|---------------------------------------------------------------------|
B|---------------------------------------------------------------------|
G|--------0---0------------------------------0----0---2--2--2--2-------|
D|-----2--------4----4---2--2------2------2-------2---2--2--2--2-------|
A|---0------0-----0-----------0h4-------0-----0------------------------|
E|---------------------------------------------------------------------|


       Repeat pattern
e|-------------------8--8---------------------------8--8----------------|
B|-------------------8--8---------------------------8--8----------------|
G|---6-6--4--6-6--6--9--9---6---4/6-6-6--4--6-6--6--9--9---6---4/6-6-6--|
D|-7-7-7--5--7-7--7--10-10--7---5/7-7-7--5--7-7--7--10-10--7---5/7-7-7--|
A|-7-7-7--5--7-7--7--10-10--7---5/7-7-7--5--7-7--7--10-10--7---5/7-7-7--|
E|-5-5-5--3--5-5--5--8--8---5---3/5-5-5--3--5-5--5--8--8---5---3/5-5-5--|

						       1. I got this 
						       2. She don't....	
							     
e|--------------------8--8-----------------8--8----------------8--8------|
B|--------------------8--8-----------------8--8----------------8--8------|
G|---6-6--4---6-6--6--9--9---6----4/6-6-6--9--9---6---4/6-6-6--9--9---6--|
D|-7-7-7--5---7-7--7--10-10--7----5/7-7-7--10-10--7---5/7-7-7--10-10--7--|
A|-7-7-7--5---7-7--7--10-10--7----5/7-7-7--10-10--7---5/7-7-7--10-10--7--|
E|-5-5-5--3---5-5--5--8--8---5----3/5-5-5--8--8---5---3/5-5-5--8--8---5--|

	                
e|--------------------7-----------------8---------------6--------------5---|
B|-8------------------8-----------------8---------------6--------------5---|
G|-4/6-6-6--9--9------9-----------------9---------------7--------------6---|
D|-5/7-7-7--10-10-----9-----------------10--------------8--------------7---|
A|-5/7-7-7--10-10-----7-----------------10--------------8--------------7---|
E|-3/5-5-5--8--8------------------------8---------------6--------------5---|
   			 Please don't ...            
           
e|-7---------------------------8--------------6---------------5------------|
B|-8---------------------------8--------------6---------------5------------|
G|-9---------------------------9--------------7---------------6------------|
D|-9---------------------------10-------------8---------------7---------14-|
A|-7---------------------------10-------------8---------------7---------14-|
E|-----------------------------8--------------6---------------5---------12-|
     I  ain't been ....

Back to intro
[ Tab from: http://www.guitartabs.cc/tabs/g/grand_funk_railroad/i_dont_have_to_sing_the_blues_tab.html ]
3rd time play this
e|------------------------------------------------------------------------|
B|------------------------------------------------------------------------|
G|-------0---0------------------------------0----0------------------------|
D|-2---2-------4----4---2--2------2-------2--------4----4---2---2-------2-|
A|---0-----0-----0-----------0h4--------0-----0------0-------------0h4----|
E|------------------------------------------------------------------------|


e|-----------------------------------------------------------------------|
B|-----------------------------------------------------------------------|
G|--------0---0------------------------------0----0----------------------|
D|-----2--------4----4---2--2------2-------2--------4---4---2------------|
A|---0------0-----0-----------0h4--------0-----0------0---------------0--|
E|------------------------------------------------------------0--3sb-----|


 Solo

e|----------------------------------------------------------------------|
B|-------------------------------------5-5------------------------------|
G|-5sb-5sb-------------------------7-7-----7p5------7-5-5sb-------------|
D|---------7---7---5---7-----------------------7-5----------~7--5---7---|
A|-----------7-------7-----------0--------------------------------7-----|
E|-----------------------0--3sb-----------------------------------------|

e|----------5-----------------5----------------5--5--8-5-5-------5------|
B|-----------5--8sb------------5--8sb------------8----------5-5sb---8-5-|
G|----------------------------------------------------------------------|
D|----------------------------------------------------------------------|
A|--------0----------------0-----------------0--------------------------|
E|-0--3sb----------0--3sb------------0--3sb-----------------------------|


e|-----------------------------------------------------------------------|
B|-----------------------------------------------------------------------|
G|-7b(7)-5---7----5sb-----12-12---12---14---16---16--14----12-14---12-12-|
D|---------7---7------7---12-12---12---14---16---16--14----12-14---12-12-|
A|-----------------------------------------------------------------------|
E|-----------------------------------------------------------------------|
   		  	   I don't have to..   
							repeat
e|-------------------------------------------------------------------|
B|-------------------------------------------------------------------|
G|--12--14-16---16--14----------12-12---12---14---16---16--14--12-14-|
D|--12--14-16---16--14----------12-12---12---14---16---16--14--12-14-|
A|---------------------------0---------------------------------------|
E|---------------------0--3sb----------------------------------------|


e|---------------------------------------------------------------|
B|-15-14--12-10-----------15-14--12-10----------15-14-12-10------|
G|---------------------------------------------------------------|
D|-12-11--9--7------------12-11--9--7-----------12-11-9--7-------|
A|----------------------0---------------------0------------------|
E|--------------0--3sb----------------0--3sb---------------------|


e|-----------------------------|
B|-------------15-14-12--14-15-|
G|-----------------------------|
D|-------------12-11--9--11-12-|
A|---------0-------------------|
E|--0--3sb---------------------|


| (7) note heard but not picked
|  b  bend
|  sb slight bend
| /  slide up
| \  slide down
| h  hammer-on
| p  pull-off
| ~  vibrato
| +  harmonic
| x  Mute note
===============================================================================
Comments