Grand Funk Railroad - Aimless Lady Chords & Tabs

 

Aimless Lady Chords & Tabs

Grand Funk Railroad Chords & Tabs

Version: 1 Type: Bass Tab 0 ratings
1 star 2 stars 3 stars 4 stars 5 stars
comments

Aimless Lady Bass Tab

Artist:Grand Funk Railroad
Song:Aimless Lady
Album:Closer To Home
Tabbed By:Gary Hricewich
E-mail:snapper2001@msn.com
[ Tab from: http://www.guitartabs.cc/tabs/g/grand_funk_railroad/aimless_lady_btab.html ]
                           
   Intro
G-------------------------|
D-------------------------|
A---7-7---7-7---7-7---7-7\|
E-------------------------|
                           
                                                           
  Part 1                                             4x
G---------9--7--------|-------11--9---------------------|
D--------------9-7-5--|-------------11-9-7--------------|
A---7-5-7-------------|-7-5-7---------------------------|
E---------------------|---------------------------------|
                                                           
                                   
  Part 2                     16x
G-------------------------------|
D-------------------------------|
A---7-5-7--------5-6------------|
E---------5--6-7----------------|
                                   
                                                        
    
G------------------------------------------------------|
D------------------------------------------------------|
A---7-7--5^7-7--5^7-7--7^9-9--9-9--5^7-7--5^7-7--7^9-9-|
E------------------------------------------------------|
                                                        
                                                        
                         Part2  1x  Part1 3x  Part2 1x        
G-----------------------|----------|----------|------|
D-----------------------|----------|----------|------|
A-----------------------|----------|----------|------|
E---7-7-7-7-7-7-7-7-7-7-|----------|----------|------|
                                                        
                                                    
       19x   Part 3 [Lead]                      8x
G----------|---------------------------------------|
D----------|-------9-------------------------------|
A---7-7----|-7-5-7----9-7-8-9---10-9-10------4-5-6-|
E----------|----------------------------7--7-------|
                                                    
                                           
      19x                    Part1    4x
G---------|-----------------|-----------|
D---------|-----------------|-----------|
A---7-7---|-7-7-7-7-7-7-7-7-|-----------|
E---------|-----------------|-----------|
                                           
                                           
    
G-----------------------------------------|
D-----------------------------------------|
A---7-7\--7-7\--7-7\--7-7-7-7-7-7-7-7-7-7-|
E-----------------------------------------|
                                           
                      
  Part3     3x   End
G--------------|-----|
D--------------|-----|
A--------------|-7-7\|
E--------------|-----|
Comments