Gramm Lou - Midnight Blue Chords & Tabs

 

Midnight Blue Chords & Tabs

Gramm Lou Chords & Tabs

Version: 1 Type: Bass Tab 0 ratings
1 star 2 stars 3 stars 4 stars 5 stars
comments

Midnight Blue Bass Tab

   
Song: Midnight Blue
Artist: Lou Gramm
Album: ?
Tabbed by: Tim Reid (natural_kozz@hotmail.com)

This is standard tuning E,A,D,G

Guitar does Into

Verse:
G|------------------------------------------------------------------|
D|------------------------------------------------------------------|
A|-5-5-5-5-5-5-5-5-5-5-5-5-5-5-5-5----------------------------------| x4
E|---------------------------------3-3-3-3-5-5-5-5-3-3-3-3-5-5-5-5--|

Chorus:(this is the 2nd line of chorus,I put the first in with the verse)
G|------------------------------------------------------------------|
D|------------------------------------------------------------------|
A|-5-5-5-5-5-5-5-5-5-5-5-5-5-5-5-5----------------------------------| x1
E|---------------------------------3-3-3-3-5-5-5-5--3---3---3---5---|
[ Tab from: http://www.guitartabs.cc/tabs/g/gramm_lou/midnight_blue_btab.html ]
Verse:
G|------------------------------------------------------------------|
D|------------------------------------------------------------------|
A|-5-5-5-5-5-5-5-5-5-5-5-5-5-5-5-5----------------------------------| x5
E|---------------------------------3-3-3-3-5-5-5-5-3-3-3-3-5-5-5-5--|

Chorus:(this is the 2nd line of chorus,I put the first in with the verse)
G|------------------------------------------------------------------|
D|------------------------------------------------------------------|
A|-5-5-5-5-5-5-5-5-5-5-5-5-5-5-5-5--------------------------------5-| x1
E|---------------------------------3-3-3-3-5-5-5-5--3---3---3---5---|

Let the D ring on this line at the end into the middle part.

Ending:
G|------------------------------------------------------------------|
D|------------------------------------------------------------------|
A|-5-5-5-5-5-5-5-5-5-5-5-5-5-5-5-5----------------------------------| x9
E|---------------------------------3-3-3-3-3-3-3-3-5-5-5-5-5-5-5-5--|

This last line starts fading out around the 6th repeat

If there is anything I did wrong, email me, this is my first ever, this
song is also very very easy to play, I did this without plugging my bass
in, so I hope its correct, Tim

Comments