Graham Coxon - Standing On My Own Again Chords & Tabs

 

Standing On My Own Again Chords & Tabs

Graham Coxon Chords & Tabs

Version: 1 Type: Tab

Standing On My Own Again Tab

Artist:Graham Coxon
Song Name:Standing on my own Again
Tabbed By:Zack Ord
Email Address:blink182rulez@hotmail.co.uk
This is my first ever tab so tell me if iam wrong...
Key:
~:let ring
x:mute
/:Slide up


Tuning:

Intro:
 Mutey Bit strummy bit....then
e|-------------------------------------------------------------------------|
B|-------------------------------------------------------------------------|
G|-----6-6-6------------6-6-6--------------6-6-6------------6-6-6----------|
D|-----6-6-6------------6-6-6--------------6-6-6------------6-6-6----------|
A|-----4-4-4------------4-4-4--------------4-4-4------------4-4-4----------|
E|-------------------------------------------------------------------------|
    Repeat(Optional)

Main Riff:
e|-------------------------------------------------------------------------|
B|-------------------------------------------------------------------------|
G|--11-11-11-11-11-11-11-11---11-11-11-11-11-11-11-11---6-6-6-6-6-6~-6-6-6-|
D|--11-11-11-11-11-11-11-11---11-11-11-11-11-11-11-11---6-6-6-6-6-6~-6-6-6-|
A|--9--9--9--8--8--8--8--9----9--9--9--8--8--8--8--9----4-4-4-4-4-4~-4-4-4-|
E|-------------------------------------------------------------------------|
    Repeat x7
Chourus:
e|--------------------------------------------------------------------------|
B|--------------------------------------------------------------------------|
G|--6-6-6-6-----------------------------------------------------------------|
D|--6-6-6-6--6--4-4-4-4-4-4-4-4--8-8-8-8--6--4-4-4-4-4-4-4-4--8-8-8-8-8-8-8-|
A|--4-4-4-4--6--4-4-4-4-4-4-4-4--8-8-8-8--6--4-4-4-4-4-4-4-4--8-8-8-8-8-8-8-|
E|-----------4--2-2-2-2-2-2-2-2--6-6-6-6--4--2-2-2-2-2-2-2-2--6-6-6-6-6-6-6-|
[ Tab from: http://www.guitartabs.cc/tabs/g/graham_coxon/standing_on_my_own_again_tab.html ]
  --------------------------------------------------------------------------|
  --------------------------------------------------------------------------|
  --------------------------------------------------------------------------|
  -8-6-6-6-6-6-6-6-6-4-4-4-4-4-4-4-4-6-6-6-6-6-6-6-6-6-6-6-6-6-6-6-6-6-6-6--|
  -8-6-6-6-6-6-6-6-6-4-4-4-4-4-4-4-4-6-6-6-6-6-6-6-6-6-6-6-6-6-6-6-6-6-6-6--|
  -6-4-4-4-4-4-4-4-4-2-2-2-2-2-2-2-2-4-4-4-4-4-4-4-4-4-4-4-4-4-4-4-4-4-4-4--|

  -------------------------------------------------------------------------|
  -------------------------------------------------------------------------|
  -------------------------------------------------------------------------|
  -6-6-6-6-6-6-6-6-6-6-6-6-6------------Back-To-Main-Riff------------------|
  -6-6-6-6-6-6-6-6-6-6-6-6-6-----------------------------------------------|
  -4-4-4-4-4-4-4-4-4-4-4-4-4-----------------------------------------------|

  Main Riff:-
  Chourus:-

  Solo:
e|----------------------------------------------------------------|---------|
B|----------------------------------------------------------------|---------|
G|----------------------------------------------------------------|---------|
D|---------------------------------------------------4444-3333----|---------|
A|--------------------------------4-4-4-4-4-4-4-4-4-4---------4444|---------|
E|-2-2-2-2-2-2-2-2-2-2-2-2-2-2-2-2--------------------------------|---------|
        Palm Muted Repeat x4

  --------------------------------------------------------------------------|
  14-14-14-13-13-13-13-13-11-11-11-9-9-9-9-9-6-6-6-7-7-7-7-/9-9-9-9-9-13-13-|
  -x--x--x--x--x--x--x--x--x--x--x-x-x-x-x-x-x-x-x-x-x-x-x-xx-x-x-x-x--x--x-|
  11-11-11-10-10-10-10-10--8--8--8-6-6-6-6-6-3-3-3-4-4-4-4-/6-6-6-6-6-10-10-|
  --------------------------------------------------------------------------|
  --------------------------------------------------------------------------|

  --------------------------------------------------------------------------|
  -13-13-13-----------------------------------------------------------------|
  --x--x--x-----------------------------------------------------------------|
  -10-10-10-----------------------------------------------------------------|
  --------------------------------------------------------------------------|
  --------------------------------------------------------------------------|
Repeat this Section x3
   Then Play the chourus once more and finish on the main riff

  Please rate this tab THank you