Graham Coxon - Standing On My Own Again Chords & Tabs

 

Standing On My Own Again Chords & Tabs

Graham Coxon Chords & Tabs

Version: 1 Type: Chords

Standing On My Own Again Chords

   
Very basic version, no timing included but its not hard to work out. So its just the 
to hit and the notes etc.

Standard tuning (example below)

E-
B-
G-
D-
A-
E-


Anyways, the fantastic hopefully partially correct tab


Introduction

-2----|
-3----|
-2----|
-0----|
------|
------|

(or)

------|
------|
-7----|
-7----|
-5----|
------|

Build Up (Palm Muted)

------|
------|
-7----|
-7----|
-5----|
------|

Verse
-------------------|
-------------------|
-12----11----12----|
-12----12----12----|
-10----10----10----|
-------------------|

------|
------|
-7----|
-7----|
-5----|
------|

Chorus

------5----3----2----5----3----|
------5----3----3----5----3----|
-7----6----4----4----6----4----|
-7----7----5----4----7----5----|
-5----7----5----2----7----5----|
------5----3---------5----3----|

-2----5----3----|
-3----5----3----|
-4----6----4----|
-4----7----5----|
-2----7----5----|
------5----3----|
[ Tab from: http://www.guitartabs.cc/tabs/g/graham_coxon/standing_on_my_own_again_crd.html ]
Interlude

-------------------------------------------------------------|
-------------------------------------------------------------|
-------------------------------------------------------------|
---------------------------------------------------55555-4---|
---------------------------------5-5-5-5-5-5-5-5-5---------5-|
-3-3-3-3-3-3-3-3-3-3-3-3-3-2-3-2-----------------------------|


Outro/Breakdown
-------------------------------------------------|
-------------------------------------------------|
-18----17----15----13----10----11----13----17----|
-------------------------------------------------|
-16----15----13----11---- 8---- 9----11----15----|
-------------------------------------------------|

-------------------------------------------------|
-18----17----15----13----10----11----13----17----|
-------------------------------------------------|
-15----14----12----10---- 7---- 8----10----14----|
-------------------------------------------------|
-------------------------------------------------|