Graham Coxon - Spectacular Chords & Tabs

 

Spectacular Chords & Tabs

Graham Coxon Chords & Tabs

Version: 1 Type: Tab 0 ratings
1 star 2 stars 3 stars 4 stars 5 stars
comments

Spectacular Tab

Intro, 
Guitar 1:
|-----------------------------------------|
|-----------------------------------------|
|-----------------------------------------|
|-7-7-7-7-7-7-7-7-7-7-7-7--10-10-10-10----|
|-7-7-7-7-7-7-7-7-7-7-7-7--10-10-10-10----|
|-5-5-5-5-5-5-5-5-5-5-5-5--8--8--8--8-----|

guitar 2:
|-----------------------------------------|
|-----------------------------------------|
|-----------------------------------------|
|-5^(6)-5--------------5~--5--7^----------|
|-----------------------------------------|
|-----------------------------------------|
x4

Break 1:
|-----------------------------------------|
|-----------------------------------------|
|-----------------------------------------|
|-7-7-7-7-7-7-7-7--5-7-5-7-5--------------|
|-7-7-7-7-7-7-7-7--5-7-5-7-5--------------|
|-5-5-5-5-5-5-5-5--3-5-3-5-3--------------|
x4


Verse:
|-----------------------------------------|-----------------------------------------|
|-----------------------------------------|-----------------------------------------|
|-----------------------------------------|-5-5-5-5-5-5-5-5-------------------------|
|-7-7-7-7-7-7-7-7--5-7-5-7-5--------------|-5-5-5-5-5-5-5-5--5-7-5-7-5--------------|
|-7-7-7-7-7-7-7-7--5-7-5-7-5--------------|-3-3-3-3-3-3-3-3--5-7-5-7-5--------------|
|-5-5-5-5-5-5-5-5--3-5-3-5-3--------------|------------------5-7-5-7-5--------------|
x2


Break 2:
|------------------|
|------------------|
|------------------|
|-77777777777777---|
|-77777777777777---|
|-55555555555555---|

[ Tab from: http://www.guitartabs.cc/tabs/g/graham_coxon/spectacular_tab.html ]
Chorus:
|-----------------------------------------------|
|-----------------------------------------------|
|-7-7-x-x-7-7-7-7---8-8-x-x-8-8-8-8-------------|
|-7-7-x-x-7-7-7-7---8-8-x-x-8-8-8-8--8----------|
|-5-5-x-x-5-5-5-5---6-6-x-x-6-6-6-6--8----------|
|------------------------------------6----------|


Solo 1:
|--------------------------------------------8-5-8-12-------------------------|
|-----------------------------------------------------------------------------|
|-5~~5~~5~~5~~5~~5~~5~~5~~-7^---(9)----(9)------------------------------------|
|--------------------------------------------------------5--------5-----------|
|----------------------------------------------------------7--5h7---7-5h7~~~--|
|-----------------------------------------------------------------------------|


Solo 2:
|-----------------------------------------|
|-5--5--5--5--5---5--------5--------5--5--|
|-7^-7^-7^-7^-7^--7^-7-5-7-7^-7-5-7-7^-7^-|
|-----------------------------------------|
|-----------------------------------------|
|-----------------------------------------|
                                                                          *
|--------------------------------------|------------------------------5--------------------|
|-5--5------------------5---------8-5--|-5--5----------------5-----5---5------5---5--------|
|-7^-7^-7^-5---------5--7^-7^-5--------|-7^-7^-7^-5--------5-7^----7^---7^-5h7--7-7^.------|
|------------7~--5h7------------5------|------------7~--5h7--------------------------------|
|---------------7----------------------|---------------7-----------------------------------|
|--------------------------------------|---------------------------------------------------|

*= not sure of tab here.
.= hold bend.
Order:
Intro
Break 1
Verse
Break 2
Chorus
Solo 1
Break 1
Verse
Break 2
Chorus
Solo 2
Chorus
Break 1 x4
Comments