Graham Coxon - Freakin Out Chords & Tabs

 

Freakin Out Chords & Tabs

Graham Coxon Chords & Tabs

Version: 2 Type: Tab 0 ratings
1 star 2 stars 3 stars 4 stars 5 stars
comments

Freakin Out Tab

Intro and Verses


PM_____________________________________________
e|---------------------------------------------------------------------------|
B|---------------------------------------------------------------------------|
G|--------------9--9--9--8--8--8--6--6--6--6--6--6---------------------------|
D|--9--9--9--9--9--9--9--9--9--9--7--7--7--7--7--7---------------------------|
A|--7--7--7--7---------------------------------------------------------------|
E|---------------------------------------------------------------------------|

PM_____________________________________________
e|---------------------------------------------------------------------------|
B|---------------------------------------------------------------------------|
G|--------------6--6--6--8--8--8--9--9--9--9--9--9---------------------------|
D|--7--7--7--7--7--7--7--9--9--9--9--9--9--9--9--9---------------------------|
A|--7--7--7--7---------------------------------------------------------------|
E|-(5)(5)(5)(5)--------------------------------------------------------------|

Chorus
[ Tab from: http://www.guitartabs.cc/tabs/g/graham_coxon/freakin_out_tab_ver_2.html ]
e|---------------------------------------------------------------------------|
B|---------------------------------------------------------------------------|
G|--9--9--9--9-------------------7--7--7--7----------------------------------|
D|--9--9--9--9--7-7-7-7-7-7-7-7--7--7--7--7--5-5-5-5-5-5-5-5-----------------|
A|--7--7--7--7--7-7-7-7-7-7-7-7--5--5--5--5--5-5-5-5-5-5-5-5-----------------|
E|--------------5-5-5-5-5-5-5-5--------------3-3-3-3-3-3-3-3-----------------|

e|---------------------------------------------------------------------------|
B|---------------------------------------------------------------------------|
G|--5--5--8--8--9-9-9-9-9-9-9-9----------------------------------------------|
D|--5--5--8--8--9-9-9-9-9-9-9-9----------------------------------------------|
A|--3--3--6--6--7-7-7-7-7-7-7-7----------------------------------------------|
E|---------------------------------------------------------------------------|

Post Chorus

e|---------------------------------------------------------------------------|
B|---------------------------------------------------------------------------|
G|--2p0-------2p0-------2p0-------2p0----------------------------------------|
D|-------2p0-------2p0-------2p0-------2-------------------------------------|
A|-------------------------------------2-------------------------------------|
E|-------------------------------------0-------------------------------------|


Still figuring out the solo but I will put it up.

Tabbed completely by ear ( my first tab ), and I'm almost positive is correct.

Please rate.

PM = Palm Mute
2p0 = Pull off
(5) = Optional note;you dont need to play it but sounds ok if you do
Comments