Grace Potter And The Nocturnals - Paris Oh La La Chords & Tabs

 

Paris Oh La La Chords & Tabs

Grace Potter And The Nocturnals Chords & Tabs

Version: 1 Type: Tab 0 ratings
1 star 2 stars 3 stars 4 stars 5 stars
comments

Paris Oh La La Tab

   
Paris (Oh La La) - Grace Potter and the Nocturnals.

Email: DermotOC96@gmail.com (In case you've any questions.)

This song is fairly easy once you have the strumming and the rhythm down.
It's a very wild and free song so let loose a bit, especially on the solo. 
There are three guitars in the song and I will tab for all of them in the 
intro only as it's it gets quite crazy after that.

Intro

Guitar 1

      F#                                       A
e|----x----x--x----x----x--x----x----x----x----x----x----x-------------------|
B|----2----x--x----2----x--x----2----x----2----2----2----2-------------------|
G|----3----x--x----3----x--x----3----x----3----2----2----2-------------------|
D|----4----x--x----4----x--x----4----x----4----2----2----2-------------------|
A|----4----x--x----4----x--x----4----x----4----x----x----x-------------------|
E|----x----x--x----x----x--x----x----x----x----x----x----x-------------------|

Guitar 2

e|---------------------------------------------------------------------------|
B|---------------------------------------------------------------------------|
G|---------------------------------------------------------------------------|
D|----4-(Let it Ring)--------------------------------------------------------|
A|---------------------------------------------------------------------------|
E|---------------------------------------------------------------------------|

Guitar 1

      A                                        C
e|----x----x--x----x----x--x----x----x----x----x----x----x-------------------|
B|----5----x--x----5----x--x----5----x----5----5----5----5-------------------|
G|----6----x--x----6----x--x----6----x----6----5----5----5-------------------|
D|----7----x--x----7----x--x----7----x----7----5----5----5-------------------|
A|----7----x--x----7----x--x----7----x----7----x----x----x-------------------|
E|----x----x--x----x----x--x----x----x----x----x----x----x-------------------|

Guitar 2

e|---------------------------------------------------------------------------|
B|---------------------------------------------------------------------------|
G|----2-(Let it Ring)--------------------------------------------------------|
D|---------------------------------------------------------------------------|
A|---------------------------------------------------------------------------|
E|---------------------------------------------------------------------------|

Guitar 1

      F#                                       A
e|----x----x--x----x----x--x----x----x----x----x----x----x-------------------|
B|----2----x--x----2----x--x----2----x----2----2----2----2-------------------|
G|----3----x--x----3----x--x----3----x----3----2----2----2-------------------|
D|----4----x--x----4----x--x----4----x----4----2----2----2-------------------|
A|----4----x--x----4----x--x----4----x----4----x----x----x-------------------|
E|----x----x--x----x----x--x----x----x----x----x----x----x-------------------|

Guitar 2
[ Tab from: http://www.guitartabs.cc/tabs/g/grace_potter_and_the_nocturnals/paris_oh_la_la_tab.html ]
e|---------------------------------------------------------------------------|
B|---------------------------------------------------------------------------|
G|---------------------------------------------------------------------------|
D|----4-(Let it Ring)--------------------------------------------------------|
A|---------------------------------------------------------------------------|
E|---------------------------------------------------------------------------|

Guitar 1

      A                                        C
e|----x----x--x----x----x--x----x----x----x----x----x----x-------------------|
B|----5----x--x----5----x--x----5----x----5----5----5----5-------------------|
G|----6----x--x----6----x--x----6----x----6----5----5----5-------------------|
D|----7----x--x----7----x--x----7----x----7----5----5----5-------------------|
A|----7----x--x----7----x--x----7----x----7----x----x----x-------------------|
E|----x----x--x----x----x--x----x----x----x----x----x----x-------------------|

Guitar 2

e|---------------------------------------------------------------------------|
B|---------------------------------------------------------------------------|
G|----2-(Let it Ring)--------------------------------------------------------|
D|---------------------------------------------------------------------------|
A|---------------------------------------------------------------------------|
E|---------------------------------------------------------------------------|

Those guitars two more times while Guitar 3 breaks into this riff over them. 
I recommend listening close for the rhythm.

Guitar 3                              Very Fast
                                      I--------I
e|----x--x----x--x----x--x----x--x----x--x--x--x-----------------------------|
B|----x--x----x--x----2--2----2--2----x--x--x--x-----------------------------|
G|----x--x----x--x----2--2----2--2----4--5--4--2-----------------------------|
D|----4--4----4--4----2--2----2--2----4--5--4--2-----------------------------|
A|----4--4----4--4----0--0----0--0----2--3--2--0-----------------------------|
E|----2--2----2--2----x--x----x--x----x--x--x--x-----------------------------|

END OF INTRO


Verse 1

"You've got me down on the floor"

e|----x--x----x--x----x--x----x--x----x--x--x--x-----------------------------|
B|----x--x----x--x----2--2----2--2----x--x--x--x-----------------------------|
G|----x--x----x--x----2--2----2--2----4--5--4--2-----------------------------|
D|----4--4----4--4----2--2----2--2----4--5--4--2-----------------------------|
A|----4--4----4--4----0--0----0--0----2--3--2--0-----------------------------|
E|----2--2----2--2----x--x----x--x----x--x--x--x-----------------------------|

Continue for all the verses.


Chorus

"If I was a man I'd make my move"

      B                A                F#
e|----x--x--x--x--x----x--x--x--x--x----x--x--x------------------------------|
B|----7--7--7--7--7----5--5--5--5--5----2--2--2------------------------------|
G|----8--8--8--8--8----6--6--6--6--6----3--3--3------------------------------|
D|----9--9--9--9--9----7--7--7--7--7----4--4--4------------------------------|
A|----9--9--9--9--9----7--7--7--7--7----4--4--4------------------------------|
E|----x--x--x--x--x----x--x--x--x--x----x--x--x------------------------------|

Repeat 3 more times and on the last F# strum the shit out of it.


************************************

| /   slide up
| \   slide down
| h   hammer-on
| p   pull-off
| ~   vibrato
| +   harmonic
| x   Mute note
| B   Bend
| pb  Pre-bend
| br  Bend release
| pbr Pre-bend release
| brb Bend release bend

************************************
Comments