Gowan - When Theres Time For Love Chords & Tabs

 

When Theres Time For Love Chords & Tabs

Gowan Chords & Tabs

Version: 1 Type: Chords 0 ratings
1 star 2 stars 3 stars 4 stars 5 stars
comments

When Theres Time For Love Chords

   
Title: When There's Time (For Love)
Artist: Lawrence Gowan
Album: ...But You Can Call Me Larry
Tuning: Standard

Chords: EADGBe
Em      022000
G       320003
C       032010
F       003211

Intro:
  G Em F                 G         F       C    G     Em
E-3-0--1-1p0-1p0-1p0-1p0-----3-3-0-1-1-1-1-0-0--3-3-3-0-----
B-0-0--1-1p0-1p0-1p0-1p0-0-3-------1-1-1-1-1-1--0-0-0-0-----
G----------------------------------2-2-2-2-0-0--------------
D----------------------------------3-3-3-3-2-2--------------
A----------------------------------0-0-0-0-3-3--------------
E----------------------------------0-0-0-0-0-0--------------
  F                 G         F       C
E-1-1p0-1p0-1p0-1p0-----3-3-0-1-1-1-1-0-0-----
B-1-1p0-1p0-1p0-1p0-0-3-------1-1-1-1-1-1-----
G-----------------------------2-2-2-2-0-0-----
D-----------------------------3-3-3-3-2-2-----
A-----------------------------0-0-0-0-3-3-----
E-----------------------------0-0-0-0-0-0-----

Verse:
    G        Em    F
The timing's wrong
G                 C        F   F F F C C
 You're out there eager to fly
     G      Em   F
I'll say so long
G                 C            F F F F C C
 But I'll sure be watching the skyyyyyyyyy
Em                         C
  When your wheels finally touch the ground
F                 C
 Look me up, I'll be around

Chorus:
             G        Em   G G F
When there's time for love
  C              F G
I wanna be there
            G       G         Em   G G F
When you've got all night for love
  C                    F G
I see you and me there
     C     F   G          Em
Well maybe our time isn't now
            F     C  
But it will come around

Verse:
G       Em   F
Must be nice
G          C           F    F F F C C
 Out there chasing the stars
  G              Em    F
I did it once or twice
G            C          F F F F C C
 I flew real high and I fell real hard
Em                C
  But do what you gotta do
     F            C
Make every single dream come true
[ Tab from: http://www.guitartabs.cc/tabs/g/gowan/when_theres_time_for_love_crd.html ]
Chorus:
                 G        Em   G G F
And When there's time for love
  C              F G
I wanna be there
            G       G         Em   G G F
When you've got all night for love
  C                    F G
I see you and me there
     C     F   G          Em
Well maybe our time isn't now
            F     C  
But it will come around

Bridge:
Em          F     C
  Yes it'll come around
      F     C
It'll come around
           Em         F                C
And if you think your soaring days are done
             F        C                  G
You're gonna find out how they've just begun

Solo:
E-3-3-3-0--1-1p0-1p0-1p0-1p0-0-3-3-3-0--1-1-1-1-0-0-----------
B-0-0-0-0--1-1p0-1p0-1p0-1p0-1-0-0-0-0--1-1-1-1-1-1-----------
G-0-0-0-0--2-2---------------0-0-0-0-0--2-2-2-2-0-0----------- (2x)
D-0-0-0-2--3-3---------------2-0-0-0-2--3-3-3-3-2-2-----------
A-2-2-2-2--0-0---------------3-2-2-2-2--0-0-0-0-3-3-----------
E-3-3-3-0--0-0---------------0-3-3-3-0--0-0-0-0-0-0-----------

Verse:
Em                         C
  When your wheels finally touch the ground
F                 C
 Look me up, I'll be around

Chorus:
                 G        Em   G G F
And When there's time for love
  C              F G
I wanna be there
            G       G         Em   G G F
When you've got all night for love
  C                    F G
I see you and me there
             G        Em   G G F
When there's time for love
  C              F G
I wanna be there
            G       G         Em   G G F
When you've got all night for love
  C                    F G
I see you and me there
     C     F   G          Em
Well maybe our time isn't now
            F     C  
But it will come around
=============================================================================
This is a very awesome song and is great for gettin' the girls all mushy (tip for
you guys out there)...I know because I've done it =D...but more than that it's
also a great hit by Larry Gowan, and is unfortunately very under-rated.  This has
always been one of my favorite songs of all time and is definately my favorite
hit by Lawrence Gowan.  Have fun with this, its not too hard, some of the changes
are fast but they're easy changes.

ROCK ON!
-Chris
Comments